  0
SECTION
  2
HEADER
  9
$ACADVER
  1
AC1018
  9
$ACADMAINTVER
 70
    39
  9
$DWGCODEPAGE
  3
ANSI_1252
  9
$LASTSAVEDBY
  1
fottrem
  9
$INSBASE
 10
0.0
 20
0.0
 30
0.0
  9
$EXTMIN
 10
15.1287164471935
 20
7.189512324101518
 30
0.0
  9
$EXTMAX
 10
25.22501083894724
 20
17.18952257920316
 30
0.0
  9
$LIMMIN
 10
0.0
 20
0.0
  9
$LIMMAX
 10
12.0
 20
9.0
  9
$ORTHOMODE
 70
     0
  9
$REGENMODE
 70
     1
  9
$FILLMODE
 70
     1
  9
$QTEXTMODE
 70
     0
  9
$MIRRTEXT
 70
     0
  9
$LTSCALE
 40
1.0
  9
$ATTMODE
 70
     1
  9
$TEXTSIZE
 40
0.2
  9
$TRACEWID
 40
0.05
  9
$TEXTSTYLE
  7
Standard
  9
$CLAYER
  8
0
  9
$CELTYPE
  6
ByLayer
  9
$CECOLOR
 62
   256
  9
$CELTSCALE
 40
1.0
  9
$DISPSILH
 70
     0
  9
$DIMSCALE
 40
1.0
  9
$DIMASZ
 40
0.18
  9
$DIMEXO
 40
0.0625
  9
$DIMDLI
 40
0.38
  9
$DIMRND
 40
0.0
  9
$DIMDLE
 40
0.0
  9
$DIMEXE
 40
0.18
  9
$DIMTP
 40
0.0
  9
$DIMTM
 40
0.0
  9
$DIMTXT
 40
0.18
  9
$DIMCEN
 40
0.09
  9
$DIMTSZ
 40
0.0
  9
$DIMTOL
 70
     0
  9
$DIMLIM
 70
     0
  9
$DIMTIH
 70
     1
  9
$DIMTOH
 70
     1
  9
$DIMSE1
 70
     0
  9
$DIMSE2
 70
     0
  9
$DIMTAD
 70
     0
  9
$DIMZIN
 70
     0
  9
$DIMBLK
  1

  9
$DIMASO
 70
     1
  9
$DIMSHO
 70
     1
  9
$DIMPOST
  1

  9
$DIMAPOST
  1

  9
$DIMALT
 70
     0
  9
$DIMALTD
 70
     2
  9
$DIMALTF
 40
25.4
  9
$DIMLFAC
 40
1.0
  9
$DIMTOFL
 70
     0
  9
$DIMTVP
 40
0.0
  9
$DIMTIX
 70
     0
  9
$DIMSOXD
 70
     0
  9
$DIMSAH
 70
     0
  9
$DIMBLK1
  1

  9
$DIMBLK2
  1

  9
$DIMSTYLE
  2
Standard
  9
$DIMCLRD
 70
     0
  9
$DIMCLRE
 70
     0
  9
$DIMCLRT
 70
     0
  9
$DIMTFAC
 40
1.0
  9
$DIMGAP
 40
0.09
  9
$DIMJUST
 70
     0
  9
$DIMSD1
 70
     0
  9
$DIMSD2
 70
     0
  9
$DIMTOLJ
 70
     1
  9
$DIMTZIN
 70
     0
  9
$DIMALTZ
 70
     0
  9
$DIMALTTZ
 70
     0
  9
$DIMUPT
 70
     0
  9
$DIMDEC
 70
     4
  9
$DIMTDEC
 70
     4
  9
$DIMALTU
 70
     2
  9
$DIMALTTD
 70
     2
  9
$DIMTXSTY
  7
Standard
  9
$DIMAUNIT
 70
     0
  9
$DIMADEC
 70
     0
  9
$DIMALTRND
 40
0.0
  9
$DIMAZIN
 70
     0
  9
$DIMDSEP
 70
    46
  9
$DIMATFIT
 70
     3
  9
$DIMFRAC
 70
     0
  9
$DIMLDRBLK
  1

  9
$DIMLUNIT
 70
     2
  9
$DIMLWD
 70
    -2
  9
$DIMLWE
 70
    -2
  9
$DIMTMOVE
 70
     0
  9
$LUNITS
 70
     2
  9
$LUPREC
 70
     4
  9
$SKETCHINC
 40
0.1
  9
$FILLETRAD
 40
0.0
  9
$AUNITS
 70
     0
  9
$AUPREC
 70
     0
  9
$MENU
  1
.
  9
$ELEVATION
 40
0.0
  9
$PELEVATION
 40
0.0
  9
$THICKNESS
 40
0.0
  9
$LIMCHECK
 70
     0
  9
$CHAMFERA
 40
0.0
  9
$CHAMFERB
 40
0.0
  9
$CHAMFERC
 40
0.0
  9
$CHAMFERD
 40
0.0
  9
$SKPOLY
 70
     0
  9
$TDCREATE
 40
2453354.092125822
  9
$TDUCREATE
 40
2453353.717125822
  9
$TDUPDATE
 40
2454792.366027662
  9
$TDUUPDATE
 40
2454791.991027662
  9
$TDINDWG
 40
0.0500462269
  9
$TDUSRTIMER
 40
0.050022581
  9
$USRTIMER
 70
     1
  9
$ANGBASE
 50
0.0
  9
$ANGDIR
 70
     0
  9
$PDMODE
 70
     0
  9
$PDSIZE
 40
0.0
  9
$PLINEWID
 40
0.0
  9
$SPLFRAME
 70
     0
  9
$SPLINETYPE
 70
     6
  9
$SPLINESEGS
 70
     8
  9
$HANDSEED
  5
48E
  9
$SURFTAB1
 70
     6
  9
$SURFTAB2
 70
     6
  9
$SURFTYPE
 70
     6
  9
$SURFU
 70
     6
  9
$SURFV
 70
     6
  9
$UCSBASE
  2

  9
$UCSNAME
  2

  9
$UCSORG
 10
0.0
 20
0.0
 30
0.0
  9
$UCSXDIR
 10
1.0
 20
0.0
 30
0.0
  9
$UCSYDIR
 10
0.0
 20
1.0
 30
0.0
  9
$UCSORTHOREF
  2

  9
$UCSORTHOVIEW
 70
     0
  9
$UCSORGTOP
 10
0.0
 20
0.0
 30
0.0
  9
$UCSORGBOTTOM
 10
0.0
 20
0.0
 30
0.0
  9
$UCSORGLEFT
 10
0.0
 20
0.0
 30
0.0
  9
$UCSORGRIGHT
 10
0.0
 20
0.0
 30
0.0
  9
$UCSORGFRONT
 10
0.0
 20
0.0
 30
0.0
  9
$UCSORGBACK
 10
0.0
 20
0.0
 30
0.0
  9
$PUCSBASE
  2

  9
$PUCSNAME
  2

  9
$PUCSORG
 10
0.0
 20
0.0
 30
0.0
  9
$PUCSXDIR
 10
1.0
 20
0.0
 30
0.0
  9
$PUCSYDIR
 10
0.0
 20
1.0
 30
0.0
  9
$PUCSORTHOREF
  2

  9
$PUCSORTHOVIEW
 70
     0
  9
$PUCSORGTOP
 10
0.0
 20
0.0
 30
0.0
  9
$PUCSORGBOTTOM
 10
0.0
 20
0.0
 30
0.0
  9
$PUCSORGLEFT
 10
0.0
 20
0.0
 30
0.0
  9
$PUCSORGRIGHT
 10
0.0
 20
0.0
 30
0.0
  9
$PUCSORGFRONT
 10
0.0
 20
0.0
 30
0.0
  9
$PUCSORGBACK
 10
0.0
 20
0.0
 30
0.0
  9
$USERI1
 70
     0
  9
$USERI2
 70
     0
  9
$USERI3
 70
     0
  9
$USERI4
 70
     0
  9
$USERI5
 70
     0
  9
$USERR1
 40
0.0
  9
$USERR2
 40
0.0
  9
$USERR3
 40
0.0
  9
$USERR4
 40
0.0
  9
$USERR5
 40
0.0
  9
$WORLDVIEW
 70
     1
  9
$SHADEDGE
 70
     3
  9
$SHADEDIF
 70
    70
  9
$TILEMODE
 70
     1
  9
$MAXACTVP
 70
    64
  9
$PINSBASE
 10
0.0
 20
0.0
 30
0.0
  9
$PLIMCHECK
 70
     0
  9
$PEXTMIN
 10
0.0
 20
0.0
 30
0.0
  9
$PEXTMAX
 10
0.0
 20
0.0
 30
0.0
  9
$PLIMMIN
 10
0.0
 20
0.0
  9
$PLIMMAX
 10
12.0
 20
9.0
  9
$UNITMODE
 70
     0
  9
$VISRETAIN
 70
     1
  9
$PLINEGEN
 70
     0
  9
$PSLTSCALE
 70
     1
  9
$TREEDEPTH
 70
  3020
  9
$CMLSTYLE
  2
Standard
  9
$CMLJUST
 70
     0
  9
$CMLSCALE
 40
1.0
  9
$PROXYGRAPHICS
 70
     1
  9
$MEASUREMENT
 70
     0
  9
$CELWEIGHT
370
    -1
  9
$ENDCAPS
280
     0
  9
$JOINSTYLE
280
     0
  9
$LWDISPLAY
290
     0
  9
$INSUNITS
 70
     1
  9
$HYPERLINKBASE
  1

  9
$STYLESHEET
  1

  9
$XEDIT
290
     0
  9
$CEPSNTYPE
380
     0
  9
$PSTYLEMODE
290
     0
  9
$FINGERPRINTGUID
  2
{8BAE0D3F-6380-4E3D-B0D1-267E31F469C1}
  9
$VERSIONGUID
  2
{6F1AD05E-3764-4268-ADD0-261F181DCA83}
  9
$EXTNAMES
290
     1
  9
$PSVPSCALE
 40
0.0
  9
$OLESTARTUP
290
     0
  9
$SORTENTS
280
   127
  9
$INDEXCTL
280
     0
  9
$HIDETEXT
280
     1
  9
$XCLIPFRAME
290
     0
  9
$HALOGAP
280
     0
  9
$OBSCOLOR
 70
   257
  9
$OBSLTYPE
280
     0
  9
$INTERSECTIONDISPLAY
280
     0
  9
$INTERSECTIONCOLOR
 70
   257
  9
$DIMASSOC
280
     2
  9
$PROJECTNAME
  1

  0
ENDSEC
  0
SECTION
  2
CLASSES
  0
CLASS
  1
ACDBDICTIONARYWDFLT
  2
AcDbDictionaryWithDefault
  3
ObjectDBX Classes
 90
        0
 91
        3
280
     0
281
     0
  0
CLASS
  1
ACDBPLACEHOLDER
  2
AcDbPlaceHolder
  3
ObjectDBX Classes
 90
        0
 91
        1
280
     0
281
     0
  0
CLASS
  1
LAYOUT
  2
AcDbLayout
  3
ObjectDBX Classes
 90
        0
 91
        1
280
     0
281
     0
  0
CLASS
  1
DICTIONARYVAR
  2
AcDbDictionaryVar
  3
ObjectDBX Classes
 90
        0
 91
        3
280
     0
281
     0
  0
CLASS
  1
TABLESTYLE
  2
AcDbTableStyle
  3
ObjectDBX Classes
 90
     2047
 91
        3
280
     0
281
     0
  0
ENDSEC
  0
SECTION
  2
TABLES
  0
TABLE
  2
VPORT
  5
8
330
0
100
AcDbSymbolTable
 70
     2
  0
VPORT
  5
97
330
8
100
AcDbSymbolTableRecord
100
AcDbViewportTableRecord
  2
*Active
 70
     0
 10
0.0
 20
0.0
 11
1.0
 21
1.0
 12
24.34924852064121
 22
14.11489831079748
 13
0.0
 23
0.0
 14
0.5
 24
0.5
 15
0.5
 25
0.5
 16
0.0
 26
0.0
 36
1.0
 17
0.0
 27
0.0
 37
0.0
 40
31.26665647302202
 41
2.031468531468532
 42
50.0
 43
0.0
 44
0.0
 50
0.0
 51
0.0
 71
    16
 72
  1000
 73
     1
 74
     1
 75
     0
 76
     0
 77
     0
 78
     0
281
     0
 65
     0
110
0.0
120
0.0
130
0.0
111
1.0
121
0.0
131
0.0
112
0.0
122
1.0
132
0.0
 79
     0
146
0.0
  0
ENDTAB
  0
TABLE
  2
LTYPE
  5
5
330
0
100
AcDbSymbolTable
 70
     1
  0
LTYPE
  5
14
330
5
100
AcDbSymbolTableRecord
100
AcDbLinetypeTableRecord
  2
ByBlock
 70
     0
  3

 72
    65
 73
     0
 40
0.0
  0
LTYPE
  5
15
330
5
100
AcDbSymbolTableRecord
100
AcDbLinetypeTableRecord
  2
ByLayer
 70
     0
  3

 72
    65
 73
     0
 40
0.0
  0
LTYPE
  5
16
330
5
100
AcDbSymbolTableRecord
100
AcDbLinetypeTableRecord
  2
Continuous
 70
     0
  3
Solid line
 72
    65
 73
     0
 40
0.0
  0
ENDTAB
  0
TABLE
  2
LAYER
  5
2
330
0
100
AcDbSymbolTable
 70
     2
  0
LAYER
  5
10
330
2
100
AcDbSymbolTableRecord
100
AcDbLayerTableRecord
  2
0
 70
     0
 62
     7
  6
Continuous
370
    -3
390
F
  0
LAYER
  5
2A2
330
2
100
AcDbSymbolTableRecord
100
AcDbLayerTableRecord
  2
DEFPOINTS
 70
     0
 62
     7
  6
Continuous
290
     0
370
    -3
390
F
  0
ENDTAB
  0
TABLE
  2
STYLE
  5
3
330
0
100
AcDbSymbolTable
 70
     1
  0
STYLE
  5
11
330
3
100
AcDbSymbolTableRecord
100
AcDbTextStyleTableRecord
  2
Standard
 70
     0
 40
0.0
 41
1.0
 50
0.0
 71
     0
 42
0.2
  3
txt
  4

  0
ENDTAB
  0
TABLE
  2
VIEW
  5
6
330
0
100
AcDbSymbolTable
 70
     0
  0
ENDTAB
  0
TABLE
  2
UCS
  5
7
330
0
100
AcDbSymbolTable
 70
     0
  0
ENDTAB
  0
TABLE
  2
APPID
  5
9
330
0
100
AcDbSymbolTable
 70
     1
  0
APPID
  5
12
330
9
100
AcDbSymbolTableRecord
100
AcDbRegAppTableRecord
  2
ACAD
 70
     0
  0
ENDTAB
  0
TABLE
  2
DIMSTYLE
  5
A
330
0
100
AcDbSymbolTable
 70
     1
100
AcDbDimStyleTable
  0
DIMSTYLE
105
27
330
A
100
AcDbSymbolTableRecord
100
AcDbDimStyleTableRecord
  2
Standard
 70
     0
340
11
  0
ENDTAB
  0
TABLE
  2
BLOCK_RECORD
  5
1
330
0
100
AcDbSymbolTable
 70
     1
  0
BLOCK_RECORD
  5
1F
330
1
100
AcDbSymbolTableRecord
100
AcDbBlockTableRecord
  2
*Model_Space
340
22
  0
BLOCK_RECORD
  5
73
330
1
100
AcDbSymbolTableRecord
100
AcDbBlockTableRecord
  2
*Paper_Space
340
74
  0
BLOCK_RECORD
  5
9B
330
1
100
AcDbSymbolTableRecord
100
AcDbBlockTableRecord
  2
*Paper_Space0
340
9C
  0
ENDTAB
  0
ENDSEC
  0
SECTION
  2
BLOCKS
  0
BLOCK
  5
20
330
1F
100
AcDbEntity
  8
0
100
AcDbBlockBegin
  2
*Model_Space
 70
     0
 71
     0
 10
0.0
 20
0.0
 30
0.0
  3
*Model_Space
  1

  0
ENDBLK
  5
21
330
1F
100
AcDbEntity
  8
0
100
AcDbBlockEnd
  0
BLOCK
  5
75
330
73
100
AcDbEntity
 67
     1
  8
0
100
AcDbBlockBegin
  2
*Paper_Space
 70
     0
 71
     0
 10
0.0
 20
0.0
 30
0.0
  3
*Paper_Space
  1

  0
ENDBLK
  5
76
330
73
100
AcDbEntity
 67
     1
  8
0
100
AcDbBlockEnd
  0
BLOCK
  5
48C
330
9B
100
AcDbEntity
  8
0
100
AcDbBlockBegin
  2
*Paper_Space0
 70
     0
 71
     0
 10
0.0
 20
0.0
 30
0.0
  3
*Paper_Space0
  1

  0
ENDBLK
  5
48D
330
9B
100
AcDbEntity
  8
0
100
AcDbBlockEnd
  0
ENDSEC
  0
SECTION
  2
ENTITIES
  0
LINE
  5
9D
330
1F
100
AcDbEntity
  8
0
  6
Continuous
 62
     7
370
    15
100
AcDbLine
 10
19.66911526617839
 20
8.743598467226597
 30
0.0
 11
19.66911526617839
 21
14.08586361178173
 31
0.0
  0
LINE
  5
9E
330
1F
100
AcDbEntity
  8
0
  6
Continuous
 62
     7
370
    15
100
AcDbLine
 10
20.91930460302379
 20
8.743598467226597
 30
0.0
 11
19.66911526617839
 21
8.743598467226597
 31
0.0
  0
LINE
  5
9F
330
1F
100
AcDbEntity
  8
0
  6
Continuous
 62
     7
370
    15
100
AcDbLine
 10
20.91930460302379
 20
15.75428716725721
 30
0.0
 11
20.91930460302379
 21
8.743598467226597
 31
0.0
  0
LINE
  5
A0
330
1F
100
AcDbEntity
  8
0
  6
Continuous
 62
     7
370
    15
100
AcDbLine
 10
20.06628732990986
 20
15.75428716725721
 30
0.0
 11
20.91930460302379
 21
15.75428716725721
 31
0.0
  0
LINE
  5
A1
330
1F
100
AcDbEntity
  8
0
  6
Continuous
 62
     7
370
    15
100
AcDbLine
 10
18.15865787247382
 20
14.08586361178173
 30
0.0
 11
18.15865787247382
 21
14.91631429041929
 31
0.0
  0
LINE
  5
A2
330
1F
100
AcDbEntity
  8
0
  6
Continuous
 62
     7
370
    15
100
AcDbLine
 10
19.66911526617839
 20
14.08586361178173
 30
0.0
 11
18.15865787247382
 21
14.08586361178173
 31
0.0
  0
SPLINE
  5
A3
330
1F
100
AcDbEntity
  8
0
  6
Continuous
 62
     7
370
    15
100
AcDbSpline
210
0.0
220
0.0
230
1.0
 70
    12
 71
     3
 72
    23
 73
    19
 74
     0
 42
0.00000001
 43
0.00000001
 40
0.0
 40
0.0
 40
0.0
 40
0.0
 40
0.0654890124593455
 40
0.1298105795931248
 40
0.1931156184393986
 40
0.2554916193823323
 40
0.3176683547598032
 40
0.3790905566175882
 40
0.4398355699351359
 40
0.5010415794457209
 40
0.5617989726509639
 40
0.6224959900540268
 40
0.6840786931795287
 40
0.7453046672648742
 40
0.8077589922039146
 40
0.87073945640362
 40
0.934986439304417
 40
1.0
 40
1.0
 40
1.0
 40
1.0
 10
24.53748192566586
 20
12.18876523183466
 30
0.0
 41
1.0
 10
24.5367247989925
 20
12.26451146900986
 30
0.0
 41
1.0
 10
24.53522404262735
 20
12.4146536467652
 30
0.0
 41
1.0
 10
24.51988709224814
 20
12.6376166482988
 30
0.0
 41
1.0
 10
24.49376568532912
 20
12.85582729260376
 30
0.0
 41
1.0
 10
24.46034373838593
 20
13.07064485127423
 30
0.0
 41
1.0
 10
24.41200590482417
 20
13.28029774988961
 30
0.0
 41
1.0
 10
24.35996172753253
 20
13.48716935628136
 30
0.0
 41
1.0
 10
24.29143830451284
 20
13.68800725923275
 30
0.0
 41
1.0
 10
24.21798992757715
 20
13.88621343460087
 30
0.0
 41
1.0
 10
24.13101549558139
 20
14.07885504573844
 30
0.0
 41
1.0
 10
24.03658712198016
 20
14.26841728372881
 30
0.0
 41
1.0
 10
23.92946172696874
 20
14.45174273743914
 30
0.0
 41
1.0
 10
23.81489358757893
 20
14.63288419763342
 30
0.0
 41
1.0
 10
23.68833401575735
 20
14.80792554655229
 30
0.0
 41
1.0
 10
23.55230131433252
 20
14.98005403225159
 30
0.0
 41
1.0
 10
23.40743062074932
 20
15.14890355989177
 30
0.0
 41
1.0
 10
23.3024720905637
 20
15.25540600636613
 30
0.0
 41
1.0
 10
23.24968159794402
 20
15.30897303521687
 30
0.0
 41
1.0
  0
SPLINE
  5
A4
330
1F
100
AcDbEntity
  8
0
  6
Continuous
 62
     7
370
    15
100
AcDbSpline
210
0.0
220
0.0
230
1.0
 70
    12
 71
     3
 72
    23
 73
    19
 74
     0
 42
0.00000001
 43
0.00000001
 40
0.0
 40
0.0
 40
0.0
 40
0.0
 40
0.0653191317632192
 40
0.1292316658994808
 40
0.1922049340898817
 40
0.2546521231351326
 40
0.3164700138539618
 40
0.3774536374499654
 40
0.4387263283013587
 40
0.4994767795004992
 40
0.5602705355074191
 40
0.6212865164738545
 40
0.6828133185583106
 40
0.744466783505745
 40
0.8069064465263773
 40
0.8702042522781616
 40
0.9345184701711651
 40
1.0
 40
1.0
 40
1.0
 40
1.0
 10
23.24968159794402
 20
15.30897303521687
 30
0.0
 41
1.0
 10
23.19547882953966
 20
15.36161614162727
 30
0.0
 41
1.0
 10
23.08824050796112
 20
15.46576872534821
 30
0.0
 41
1.0
 10
22.92073757932748
 20
15.61212983073066
 30
0.0
 41
1.0
 10
22.74859682060146
 20
15.74760176139102
 30
0.0
 41
1.0
 10
22.57291395413962
 20
15.87439057038855
 30
0.0
 41
1.0
 10
22.39234381216797
 20
15.98992198597821
 30
0.0
 41
1.0
 10
22.20768919474025
 20
16.09606977765423
 30
0.0
 41
1.0
 10
22.01884588805083
 20
16.19190076799585
 30
0.0
 41
1.0
 10
21.82567401533635
 20
16.27812782998626
 30
0.0
 41
1.0
 10
21.62830919562708
 20
16.35353380009508
 30
0.0
 41
1.0
 10
21.42615469089353
 20
16.41782626102296
 30
0.0
 41
1.0
 10
21.22052288843943
 20
16.47389259930891
 30
0.0
 41
1.0
 10
21.01045228532776
 20
16.51861928118162
 30
0.0
 41
1.0
 10
20.79674629371969
 20
16.55525835600432
 30
0.0
 41
1.0
 10
20.5782899776116
 20
16.58049019264712
 30
0.0
 41
1.0
 10
20.35537126412081
 20
16.59606946113362
 30
0.0
 41
1.0
 10
20.20522306798846
 20
16.59753728848182
 30
0.0
 41
1.0
 10
20.1294737945619
 20
16.598277802574
 30
0.0
 41
1.0
  0
SPLINE
  5
A5
330
1F
100
AcDbEntity
  8
0
  6
Continuous
 62
     7
370
    15
100
AcDbSpline
210
0.0
220
0.0
230
1.0
 70
    12
 71
     3
 72
    23
 73
    19
 74
     0
 42
0.00000001
 43
0.00000001
 40
0.0
 40
0.0
 40
0.0
 40
0.0
 40
0.066547072884556
 40
0.1319215572224124
 40
0.1962241963187249
 40
0.2596384302251791
 40
0.3223268435629766
 40
0.3839258402782328
 40
0.4449929705936608
 40
0.5062224623701153
 40
0.5669791324623124
 40
0.6276563810189452
 40
0.6886072740670414
 40
0.7494090591568816
 40
0.8111843270784458
 40
0.873124679892153
 40
0.9363298224911053
 40
1.0
 40
1.0
 40
1.0
 40
1.0
 10
15.81624536047492
 20
12.18876523183466
 30
0.0
 41
1.0
 10
15.8169518129391
 20
12.11201019947996
 30
0.0
 41
1.0
 10
15.81835226986598
 20
11.95985259203
 30
0.0
 41
1.0
 10
15.83442889220162
 20
11.73403039306922
 30
0.0
 41
1.0
 10
15.85778542771127
 20
11.51253509138015
 30
0.0
 41
1.0
 10
15.89246910302212
 20
11.29559950252177
 30
0.0
 41
1.0
 10
15.93769594459193
 20
11.08383696890662
 30
0.0
 41
1.0
 10
15.99203546046049
 20
10.87703324052919
 30
0.0
 41
1.0
 10
16.05532753556883
 20
10.67455652787845
 30
0.0
 41
1.0
 10
16.12843923974641
 20
10.47639099558734
 30
0.0
 41
1.0
 10
16.21355058630545
 20
10.28360313237001
 30
0.0
 41
1.0
 10
16.3065375552193
 20
10.09486128863379
 30
0.0
 41
1.0
 10
16.41039001588965
 20
9.911769349178968
 30
0.0
 41
1.0
 10
16.52406150100497
 20
9.733159319725178
 30
0.0
 41
1.0
 10
16.64677573594734
 20
9.559199484385218
 30
0.0
 41
1.0
 10
16.78038718367517
 20
9.389967123261652
 30
0.0
 41
1.0
 10
16.92217757939495
 20
9.224560518069286
 30
0.0
 41
1.0
 10
17.0242420512362
 20
9.119683633319028
 30
0.0
 41
1.0
 10
17.07546133512814
 20
9.067052988817462
 30
0.0
 41
1.0
  0
SPLINE
  5
A6
330
1F
100
AcDbEntity
  8
0
  6
Continuous
 62
     7
370
    15
100
AcDbSpline
210
0.0
220
0.0
230
1.0
 70
    12
 71
     3
 72
    23
 73
    19
 74
     0
 42
0.00000001
 43
0.00000001
 40
0.0
 40
0.0
 40
0.0
 40
0.0
 40
0.0636935497010403
 40
0.1265933001269195
 40
0.1888990373680517
 40
0.2503422640293606
 40
0.3115339545688685
 40
0.3725072216080464
 40
0.4328173344276193
 40
0.4935963072150985
 40
0.5548482752512831
 40
0.6159378222264308
 40
0.6779802699607408
 40
0.7402662611151465
 40
0.8037037732613922
 40
0.8680300167152741
 40
0.933428498866065
 40
1.0
 40
1.0
 40
1.0
 40
1.0
 10
17.07546133512814
 20
15.30897303521687
 30
0.0
 41
1.0
 10
17.02435624742755
 20
15.25624658238529
 30
0.0
 41
1.0
 10
16.92278298395486
 20
15.15145079538207
 30
0.0
 41
1.0
 10
16.77927516045813
 20
14.98746613077235
 30
0.0
 41
1.0
 10
16.64791586042789
 20
14.81697678103689
 30
0.0
 41
1.0
 10
16.52301525333492
 20
14.64408522252634
 30
0.0
 41
1.0
 10
16.41088972885036
 20
14.4644245357227
 30
0.0
 41
1.0
 10
16.30688074248475
 20
14.28150966182185
 30
0.0
 41
1.0
 10
16.21317054111724
 20
14.0936120543577
 30
0.0
 41
1.0
 10
16.1284829810165
 20
13.90111611049009
 30
0.0
 41
1.0
 10
16.05535392503121
 20
13.70297057637968
 30
0.0
 41
1.0
 10
15.99174101492398
 20
13.50007090047052
 30
0.0
 41
1.0
 10
15.93816822750959
 20
13.29307914020788
 30
0.0
 41
1.0
 10
15.89223063417602
 20
13.08148248210146
 30
0.0
 41
1.0
 10
15.85782953850543
 20
12.86498549393696
 30
0.0
 41
1.0
 10
15.83441684704418
 20
12.64350276804224
 30
0.0
 41
1.0
 10
15.81835536535838
 20
12.41767717842236
 30
0.0
 41
1.0
 10
15.81695285086614
 20
12.26552003175204
 30
0.0
 41
1.0
 10
15.81624536047492
 20
12.18876523183466
 30
0.0
 41
1.0
  0
SPLINE
  5
A7
330
1F
100
AcDbEntity
  8
0
  6
Continuous
 62
     7
370
    15
100
AcDbSpline
210
0.0
220
0.0
230
1.0
 70
    12
 71
     3
 72
    15
 73
    11
 74
     0
 42
0.00000001
 43
0.00000001
 40
0.0
 40
0.0
 40
0.0
 40
0.0
 40
0.1277757446836275
 40
0.2518920836048999
 40
0.3743349739105848
 40
0.4954667520938114
 40
0.6177438299247717
 40
0.7416753459972342
 40
0.8687061433993211
 40
1.0
 40
1.0
 40
1.0
 40
1.0
 10
20.1294737945619
 20
16.598277802574
 30
0.0
 41
1.0
 10
19.98430486221256
 20
16.59493810895572
 30
0.0
 41
1.0
 10
19.69812453170682
 20
16.5883543681512
 30
0.0
 41
1.0
 10
19.27701391005698
 20
16.52348139585058
 30
0.0
 41
1.0
 10
18.87117607754071
 20
16.42354754652753
 30
0.0
 41
1.0
 10
18.47945412427567
 20
16.28280007099007
 30
0.0
 41
1.0
 10
18.10403228264235
 20
16.09935364067725
 30
0.0
 41
1.0
 10
17.74279157724443
 20
15.87676482012209
 30
0.0
 41
1.0
 10
17.39567836091116
 20
15.61460050623981
 30
0.0
 41
1.0
 10
17.18336824180753
 20
15.41196354583604
 30
0.0
 41
1.0
 10
17.07546133512814
 20
15.30897303521687
 30
0.0
 41
1.0
  0
SPLINE
  5
A8
330
1F
100
AcDbEntity
  8
0
  6
Continuous
 62
     7
370
    15
100
AcDbSpline
210
0.0
220
0.0
230
1.0
 70
    12
 71
     3
 72
    23
 73
    19
 74
     0
 42
0.00000001
 43
0.00000001
 40
0.0
 40
0.0
 40
0.0
 40
0.0
 40
0.0655038910809704
 40
0.1298400716013889
 40
0.1931594928865569
 40
0.2555496651978111
 40
0.3176482047892681
 40
0.3791960176280254
 40
0.4399548317655096
 40
0.5011747468309725
 40
0.5619459436687713
 40
0.6226567509874515
 40
0.6840377693522712
 40
0.745512187177932
 40
0.8077287532919242
 40
0.8709931910868052
 40
0.9349716687019338
 40
1.0
 40
1.0
 40
1.0
 40
1.0
 10
20.1294737945619
 20
7.780757100730963
 30
0.0
 41
1.0
 10
20.20522100798146
 20
7.781509950212687
 30
0.0
 41
1.0
 10
20.3553651208227
 20
7.783002228442971
 30
0.0
 41
1.0
 10
20.5783138824431
 20
7.798401567736569
 30
0.0
 41
1.0
 10
20.79657735496085
 20
7.824291519954368
 30
0.0
 41
1.0
 10
21.01109567862355
 20
7.858545644407627
 30
0.0
 41
1.0
 10
21.22148800478325
 20
7.903742818691658
 30
0.0
 41
1.0
 10
21.42758831784644
 20
7.958884953396762
 30
0.0
 41
1.0
 10
21.62876653551471
 20
8.026616555930591
 30
0.0
 41
1.0
 10
21.82688691885119
 20
8.100334349188959
 30
0.0
 41
1.0
 10
22.01965261909738
 20
8.187067222968146
 30
0.0
 41
1.0
 10
22.20858008794348
 20
8.282083270309727
 30
0.0
 41
1.0
 10
22.39347468557405
 20
8.386615499611874
 30
0.0
 41
1.0
 10
22.57246545283358
 20
8.504004896460483
 30
0.0
 41
1.0
 10
22.74979985356929
 20
8.627841598915712
 30
0.0
 41
1.0
 10
22.91963897930874
 20
8.766317568004794
 30
0.0
 41
1.0
 10
23.09020152664427
 20
8.909106577121829
 30
0.0
 41
1.0
 10
23.19623394459306
 20
9.014119321359658
 30
0.0
 41
1.0
 10
23.24968159794402
 20
9.067052988817462
 30
0.0
 41
1.0
  0
SPLINE
  5
A9
330
1F
100
AcDbEntity
  8
0
  6
Continuous
 62
     7
370
    15
100
AcDbSpline
210
0.0
220
0.0
230
1.0
 70
    12
 71
     3
 72
    23
 73
    19
 74
     0
 42
0.00000001
 43
0.00000001
 40
0.0
 40
0.0
 40
0.0
 40
0.0
 40
0.065303197966089
 40
0.1292001414273743
 40
0.1921580480651507
 40
0.2545900038883
 40
0.3161598056724219
 40
0.3777204518687288
 40
0.4383957295665293
 40
0.4991313614418537
 40
0.5599102875612834
 40
0.621045221338582
 40
0.6824454237535263
 40
0.7445998894386942
 40
0.8069535493188549
 40
0.8702359143510761
 40
0.9345344435833022
 40
0.9999999999999999
 40
0.9999999999999999
 40
0.9999999999999999
 40
0.9999999999999999
 10
23.24968159794402
 20
9.067052988817462
 30
0.0
 41
1.0
 10
23.30232170356794
 20
9.121257635044074
 30
0.0
 41
1.0
 10
23.40646835033539
 20
9.228499671829425
 30
0.0
 41
1.0
 10
23.55287303512817
 20
9.395975329484841
 30
0.0
 41
1.0
 10
23.68818290634334
 20
9.568217501230901
 30
0.0
 41
1.0
 10
23.8154100885
 20
9.743308600887644
 30
0.0
 41
1.0
 10
23.92899212698563
 20
9.92558758780255
 30
0.0
 41
1.0
 10
24.03664001526209
 20
10.10907497052725
 30
0.0
 41
1.0
 10
24.13105494451422
 20
10.29866582082172
 30
0.0
 41
1.0
 10
24.21758595006708
 20
10.49096618804313
 30
0.0
 41
1.0
 10
24.29210000947386
 20
10.6887867028564
 30
0.0
 41
1.0
 10
24.35961967296738
 20
10.88997554488397
 30
0.0
 41
1.0
 10
24.41206733549805
 20
11.0972118759529
 30
0.0
 41
1.0
 10
24.46032714347609
 20
11.30689124153518
 30
0.0
 41
1.0
 10
24.49377020770338
 20
11.52170163703648
 30
0.0
 41
1.0
 10
24.51988585772892
 20
11.73991423413054
 30
0.0
 41
1.0
 10
24.53522435988624
 20
11.96287670928734
 30
0.0
 41
1.0
 10
24.53672490537759
 20
12.113018958573
 30
0.0
 41
1.0
 10
24.53748192566586
 20
12.18876523183466
 30
0.0
 41
1.0
  0
SPLINE
  5
AA
330
1F
100
AcDbEntity
  8
0
  6
Continuous
 62
     7
370
    15
100
AcDbSpline
210
0.0
220
0.0
230
1.0
 70
    12
 71
     3
 72
    23
 73
    19
 74
     0
 42
0.00000001
 43
0.00000001
 40
0.0
 40
0.0
 40
0.0
 40
0.0
 40
0.0830831456987543
 40
0.1613994921324027
 40
0.2364467478684872
 40
0.3084661353892407
 40
0.3762808402121873
 40
0.4413060962513876
 40
0.5036511334591919
 40
0.5630766682311958
 40
0.620142928024991
 40
0.6761816088917307
 40
0.7303341475304742
 40
0.7838772602655238
 40
0.837420373000574
 40
0.89048464917641
 40
0.9444432582878347
 40
0.9999999999999999
 40
0.9999999999999999
 40
0.9999999999999999
 40
0.9999999999999999
 10
18.15865787246423
 20
14.91631429043263
 30
0.0
 41
1.0
 10
18.22032874579733
 20
14.91376248683375
 30
0.0
 41
1.0
 10
18.34013219752755
 20
14.90880528641277
 30
0.0
 41
1.0
 10
18.51582660799355
 20
14.91059690465194
 30
0.0
 41
1.0
 10
18.68309259483301
 20
14.91895070728713
 30
0.0
 41
1.0
 10
18.84184691769622
 20
14.93681692359912
 30
0.0
 41
1.0
 10
18.99170032299025
 20
14.96331819235335
 30
0.0
 41
1.0
 10
19.13380653289419
 20
14.99295047743384
 30
0.0
 41
1.0
 10
19.26576088889384
 20
15.03645802835253
 30
0.0
 41
1.0
 10
19.38988901093804
 20
15.08391549103677
 30
0.0
 41
1.0
 10
19.50547040499739
 20
15.13979819615869
 30
0.0
 41
1.0
 10
19.61155074830177
 20
15.20471518567006
 30
0.0
 41
1.0
 10
19.71079782429975
 20
15.27529635574577
 30
0.0
 41
1.0
 10
19.80005213442226
 20
15.35558323320874
 30
0.0
 41
1.0
 10
19.87940148907477
 20
15.44449204658542
 30
0.0
 41
1.0
 10
19.95055958345525
 20
15.54031385713674
 30
0.0
 41
1.0
 10
20.01505771526194
 20
15.6427540990364
 30
0.0
 41
1.0
 10
20.04904546650266
 20
15.71674954493113
 30
0.0
 41
1.0
 10
20.066287329884
 20
15.75428716723292
 30
0.0
 41
1.0
  0
SPLINE
  5
AB
330
1F
100
AcDbEntity
  8
0
  6
Continuous
 62
     7
370
    15
100
AcDbSpline
210
0.0
220
0.0
230
1.0
 70
    12
 71
     3
 72
    15
 73
    11
 74
     0
 42
0.00000001
 43
0.00000001
 40
0.0
 40
0.0
 40
0.0
 40
0.0
 40
0.1310434001598454
 40
0.2581205488011103
 40
0.3817211468657639
 40
0.503850370294119
 40
0.6255921350628535
 40
0.7480797025634415
 40
0.872177632259412
 40
0.9999999999999999
 40
0.9999999999999999
 40
0.9999999999999999
 40
0.9999999999999999
 10
17.07546133512814
 20
9.067052988817462
 30
0.0
 41
1.0
 10
17.18342319738319
 20
8.96461096655139
 30
0.0
 41
1.0
 10
17.39607927240009
 20
8.762827504161624
 30
0.0
 41
1.0
 10
17.7426201762086
 20
8.50136053473626
 30
0.0
 41
1.0
 10
18.10233028302367
 20
8.277327422174046
 30
0.0
 41
1.0
 10
18.47909876734796
 20
8.096674043455373
 30
0.0
 41
1.0
 10
18.87039810763273
 20
7.953847358062124
 30
0.0
 41
1.0
 10
19.27691469912961
 20
7.853660631734019
 30
0.0
 41
1.0
 10
19.69825986799798
 20
7.791164422655573
 30
0.0
 41
1.0
 10
19.98432606650663
 20
7.784260232330805
 30
0.0
 41
1.0
 10
20.1294737945619
 20
7.780757100730963
 30
0.0
 41
1.0
  0
SPLINE
  5
AC
330
1F
100
AcDbEntity
  8
0
  6
Continuous
 62
     7
370
    15
100
AcDbSpline
210
0.0
220
0.0
230
1.0
 70
    12
 71
     3
 72
    23
 73
    19
 74
     0
 42
0.00000001
 43
0.00000001
 40
0.0
 40
0.0
 40
0.0
 40
0.0
 40
0.0660687890833549
 40
0.1314574361009117
 40
0.1952331619986511
 40
0.2583074802800586
 40
0.3205990286137785
 40
0.3824620005724111
 40
0.4433406924513252
 40
0.504432741404551
 40
0.5650421816533305
 40
0.6258121198807344
 40
0.6866752874212909
 40
0.7480072166614494
 40
0.8098760634904157
 40
0.8724923431791493
 40
0.935925210923669
 40
1.0
 40
1.0
 40
1.0
 40
1.0
 10
23.73260672083973
 20
15.72570281416426
 30
0.0
 41
1.0
 10
23.79338052818607
 20
15.66357801386548
 30
0.0
 41
1.0
 10
23.91430250975542
 20
15.53996795412498
 30
0.0
 41
1.0
 10
24.08337241186299
 20
15.34650832941171
 30
0.0
 41
1.0
 10
24.24039458040902
 20
15.14826364788797
 30
0.0
 41
1.0
 10
24.38683734479092
 20
14.94703808179716
 30
0.0
 41
1.0
 10
24.52053099219452
 20
14.7401382787749
 30
0.0
 41
1.0
 10
24.64431862661709
 20
14.5304887727913
 30
0.0
 41
1.0
 10
24.75442455515676
 20
14.31509556777289
 30
0.0
 41
1.0
 10
24.85368527929925
 20
14.09632139389565
 30
0.0
 41
1.0
 10
24.94076159121501
 20
13.87260293378078
 30
0.0
 41
1.0
 10
25.0185896956495
 20
13.64575366941659
 30
0.0
 41
1.0
 10
25.08071988876104
 20
13.41314243186229
 30
0.0
 41
1.0
 10
25.13423393532847
 20
13.17695256599629
 30
0.0
 41
1.0
 10
25.17400292982753
 20
12.9357168602637
 30
0.0
 41
1.0
 10
25.20513077584372
 20
12.69043674235735
 30
0.0
 41
1.0
 10
25.22103000692518
 20
12.4407215946074
 30
0.0
 41
1.0
 10
25.2236794488454
 20
12.27303209002984
 30
0.0
 41
1.0
 10
25.22501083894724
 20
12.18876523183466
 30
0.0
 41
1.0
  0
SPLINE
  5
AD
330
1F
100
AcDbEntity
  8
0
  6
Continuous
 62
     7
370
    15
100
AcDbSpline
210
0.0
220
0.0
230
1.0
 70
    12
 71
     3
 72
    23
 73
    19
 74
     0
 42
0.00000001
 43
0.00000001
 40
0.0
 40
0.0
 40
0.0
 40
0.0
 40
0.0651543087909904
 40
0.1293780198035137
 40
0.1924782441096532
 40
0.2549548043369947
 40
0.316667783800777
 40
0.3779721736661382
 40
0.4388304291404864
 40
0.4999199330397628
 40
0.560543647886082
 40
0.6215900838233163
 40
0.6829754570659466
 40
0.7447535127855611
 40
0.8071551891022822
 40
0.8706432431256977
 40
0.9346173459689027
 40
1.0
 40
1.0
 40
1.0
 40
1.0
 10
16.59103177259723
 20
15.72570281416426
 30
0.0
 41
1.0
 10
16.65203925550983
 20
15.78560902381617
 30
0.0
 41
1.0
 10
16.77318285259329
 20
15.90456580384364
 30
0.0
 41
1.0
 10
16.96528155259376
 20
16.06866533848872
 30
0.0
 41
1.0
 10
17.15903668144573
 20
16.22516128468174
 30
0.0
 41
1.0
 10
17.35933166092057
 20
16.36775442199205
 30
0.0
 41
1.0
 10
17.56453207500787
 20
16.49870137247303
 30
0.0
 41
1.0
 10
17.7734336693343
 20
16.61954069647681
 30
0.0
 41
1.0
 10
17.98809137002156
 20
16.72806663737979
 30
0.0
 41
1.0
 10
18.20697539739871
 20
16.82552233905951
 30
0.0
 41
1.0
 10
18.43067792493095
 20
16.91218724923581
 30
0.0
 41
1.0
 10
18.659596421315
 20
16.9851148457295
 30
0.0
 41
1.0
 10
18.89276472984008
 20
17.04902838416643
 30
0.0
 41
1.0
 10
19.13102518614419
 20
17.09951469194905
 30
0.0
 41
1.0
 10
19.37382585266516
 20
17.14084426568321
 30
0.0
 41
1.0
 10
19.62143401461404
 20
17.16894854273176
 30
0.0
 41
1.0
 10
19.87398511871859
 20
17.18578170596012
 30
0.0
 41
1.0
 10
20.04369491896679
 20
17.18826660220349
 30
0.0
 41
1.0
 10
20.1294737945619
 20
17.18952257920316
 30
0.0
 41
1.0
  0
SPLINE
  5
AE
330
1F
100
AcDbEntity
  8
0
  6
Continuous
 62
     7
370
    15
100
AcDbSpline
210
0.0
220
0.0
230
1.0
 70
    12
 71
     3
 72
    23
 73
    19
 74
     0
 42
0.00000001
 43
0.00000001
 40
0.0
 40
0.0
 40
0.0
 40
0.0
 40
0.0640747890763309
 40
0.1275076568208507
 40
0.1901239365095843
 40
0.2519927833385506
 40
0.3133247125787091
 40
0.3741878801192656
 40
0.4349578183466695
 40
0.495567258595449
 40
0.5566593075486747
 40
0.6175379994275887
 40
0.6794009713862214
 40
0.7416925197199413
 40
0.8047668380013488
 40
0.8685425638990881
 40
0.9339312109166451
 40
1.0
 40
1.0
 40
1.0
 40
1.0
 10
25.22501083894724
 20
12.18876523183466
 30
0.0
 41
1.0
 10
25.2236794488454
 20
12.10449837363954
 30
0.0
 41
1.0
 10
25.22103000692518
 20
11.93680886906198
 30
0.0
 41
1.0
 10
25.20513077584372
 20
11.68709372131228
 30
0.0
 41
1.0
 10
25.17400292982753
 20
11.44181360340592
 30
0.0
 41
1.0
 10
25.13423393532847
 20
11.2005778976731
 30
0.0
 41
1.0
 10
25.08071988876104
 20
10.96438803180728
 30
0.0
 41
1.0
 10
25.0185896956495
 20
10.73177679425281
 30
0.0
 41
1.0
 10
24.94076159121501
 20
10.50492752988884
 30
0.0
 41
1.0
 10
24.85368527929925
 20
10.28120906977394
 30
0.0
 41
1.0
 10
24.75442455515676
 20
10.06243489589644
 30
0.0
 41
1.0
 10
24.64431862661709
 20
9.84704169087832
 30
0.0
 41
1.0
 10
24.52053099219452
 20
9.637392184894665
 30
0.0
 41
1.0
 10
24.38683734479092
 20
9.430492381872405
 30
0.0
 41
1.0
 10
24.24039458040902
 20
9.229266815781592
 30
0.0
 41
1.0
 10
24.08337241186299
 20
9.031022134257626
 30
0.0
 41
1.0
 10
23.91430250975542
 20
8.837562509544426
 30
0.0
 41
1.0
 10
23.79338052818607
 20
8.713952449804069
 30
0.0
 41
1.0
 10
23.73260672083973
 20
8.6518276495053
 30
0.0
 41
1.0
  0
SPLINE
  5
AF
330
1F
100
AcDbEntity
  8
0
  6
Continuous
 62
     7
370
    15
100
AcDbSpline
210
0.0
220
0.0
230
1.0
 70
    12
 71
     3
 72
    23
 73
    19
 74
     0
 42
0.00000001
 43
0.00000001
 40
0.0
 40
0.0
 40
0.0
 40
0.0
 40
0.0641626952787583
 40
0.1274089559763683
 40
0.189610368140581
 40
0.2514427715819593
 40
0.3130536289087768
 40
0.3735656648372949
 40
0.4345070515639669
 40
0.4953553588721117
 40
0.5561116103182536
 40
0.6173047621012164
 40
0.6792104565602891
 40
0.7415211218745538
 40
0.8044585638362921
 40
0.8684764408623076
 40
0.9337307724040191
 40
1.0
 40
1.0
 40
1.0
 40
1.0
 10
23.73260672083973
 20
8.6518276495053
 30
0.0
 41
1.0
 10
23.67156193984794
 20
8.59196784844476
 30
0.0
 41
1.0
 10
23.55034427933397
 20
8.473103222746992
 30
0.0
 41
1.0
 10
23.35872959633907
 20
8.308270566032597
 30
0.0
 41
1.0
 10
23.16255756769053
 20
8.153998560832388
 30
0.0
 41
1.0
 10
22.96065108156903
 20
8.011000603961445
 30
0.0
 41
1.0
 10
22.75413537437064
 20
7.878871540951465
 30
0.0
 41
1.0
 10
22.54161301276689
 20
7.758972167532431
 30
0.0
 41
1.0
 10
22.32380271017593
 20
7.651339140645717
 30
0.0
 41
1.0
 10
22.10124252187526
 20
7.553113335573919
 30
0.0
 41
1.0
 10
21.87332879382076
 20
7.466923813748561
 30
0.0
 41
1.0
 10
21.63951575213705
 20
7.393648800252365
 30
0.0
 41
1.0
 10
21.40073492871956
 20
7.330041404376871
 30
0.0
 41
1.0
 10
21.1564854286571
 20
7.279507312321339
 30
0.0
 41
1.0
 10
20.90766389570373
 20
7.238211893492124
 30
0.0
 41
1.0
 10
20.65305789285585
 20
7.209923408313653
 30
0.0
 41
1.0
 10
20.39297450809727
 20
7.193317248347007
 30
0.0
 41
1.0
 10
20.21775804923745
 20
7.190787140008382
 30
0.0
 41
1.0
 10
20.1294737945619
 20
7.189512324101518
 30
0.0
 41
1.0
  0
SPLINE
  5
B0
330
1F
100
AcDbEntity
  8
0
  6
Continuous
 62
     7
370
    15
100
AcDbSpline
210
0.0
220
0.0
230
1.0
 70
    12
 71
     3
 72
    23
 73
    19
 74
     0
 42
0.00000001
 43
0.00000001
 40
0.0
 40
0.0
 40
0.0
 40
0.0
 40
0.0651881781839426
 40
0.1291566773770239
 40
0.1923522261587146
 40
0.2545504496064623
 40
0.3165024404737861
 40
0.3776488227586082
 40
0.4385387143934387
 40
0.4996599746638776
 40
0.5603152037486013
 40
0.6213933736688279
 40
0.6828106570854193
 40
0.7446208271085053
 40
0.8070549419075805
 40
0.8705759991488858
 40
0.9345833578744436
 40
1.0
 40
1.0
 40
1.0
 40
1.0
 10
16.59103177259723
 20
8.6518276495053
 30
0.0
 41
1.0
 10
16.5312660672862
 20
8.71295298713759
 30
0.0
 41
1.0
 10
16.41285288050732
 20
8.834059999667382
 30
0.0
 41
1.0
 10
16.24686764199382
 20
9.024187489735272
 30
0.0
 41
1.0
 10
16.09416616029531
 20
9.220078509728019
 30
0.0
 41
1.0
 10
15.95017762826487
 20
9.419177862433457
 30
0.0
 41
1.0
 10
15.81761462476962
 20
9.622978123938136
 30
0.0
 41
1.0
 10
15.69906415600887
 20
9.833222741389967
 30
0.0
 41
1.0
 10
15.59004390743315
 20
10.04730883374533
 30
0.0
 41
1.0
 10
15.49275086805746
 20
10.26628651429499
 30
0.0
 41
1.0
 10
15.40604257904317
 20
10.48996406636758
 30
0.0
 41
1.0
 10
15.33312666721436
 20
10.7188892902228
 30
0.0
 41
1.0
 10
15.26920996990086
 20
10.9520557800179
 30
0.0
 41
1.0
 10
15.21872451700062
 20
11.19031672852239
 30
0.0
 41
1.0
 10
15.1773947106706
 20
11.43311726112559
 30
0.0
 41
1.0
 10
15.14929049721179
 20
11.6807254596865
 30
0.0
 41
1.0
 10
15.13245731695164
 20
11.93327655398498
 30
0.0
 41
1.0
 10
15.12997242302312
 20
12.10298635556594
 30
0.0
 41
1.0
 10
15.1287164471935
 20
12.18876523183466
 30
0.0
 41
1.0
  0
SPLINE
  5
B1
330
1F
100
AcDbEntity
  8
0
  6
Continuous
 62
     7
370
    15
100
AcDbSpline
210
0.0
220
0.0
230
1.0
 70
    12
 71
     3
 72
    23
 73
    19
 74
     0
 42
0.00000001
 43
0.00000001
 40
0.0
 40
0.0
 40
0.0
 40
0.0
 40
0.0653936862967321
 40
0.1297600766041982
 40
0.1928790535158507
 40
0.2552912591064195
 40
0.3174535497038719
 40
0.3788492807356391
 40
0.4395422559374023
 40
0.5005331243524235
 40
0.5612838703059363
 40
0.6224936254921746
 40
0.6836185504560559
 40
0.7452281714208393
 40
0.8077152735574774
 40
0.8708886459303342
 40
0.9348346974729419
 40
1.0
 40
1.0
 40
1.0
 40
1.0
 10
20.1294737945619
 20
7.189512324101518
 30
0.0
 41
1.0
 10
20.04369636049098
 20
7.190787777160686
 30
0.0
 41
1.0
 10
19.87348900491465
 20
7.193318646668288
 30
0.0
 41
1.0
 10
19.62091594480601
 20
7.209906154371769
 30
0.0
 41
1.0
 10
19.37333564634027
 20
7.238306608647719
 30
0.0
 41
1.0
 10
19.13055969894465
 20
7.279689593189943
 30
0.0
 41
1.0
 10
18.89173413286873
 20
7.3298425267688
 30
0.0
 41
1.0
 10
18.65847616993769
 20
7.39358209750328
 30
0.0
 41
1.0
 10
18.42993492804972
 20
7.467562446426804
 30
0.0
 41
1.0
 10
18.2061440829165
 20
7.55270850888493
 30
0.0
 41
1.0
 10
17.98740990599462
 20
7.651690825651972
 30
0.0
 41
1.0
 10
17.77273548251074
 20
7.759441286261538
 30
0.0
 41
1.0
 10
17.56237128174849
 20
7.877956732630103
 30
0.0
 41
1.0
 10
17.35954288195021
 20
8.011932396645399
 30
0.0
 41
1.0
 10
17.15937602802001
 20
8.154388511947182
 30
0.0
 41
1.0
 10
16.96345352545677
 20
8.307751145338763
 30
0.0
 41
1.0
 10
16.77324821991586
 20
8.473626249737563
 30
0.0
 41
1.0
 10
16.65215177601368
 20
8.5920543945501
 30
0.0
 41
1.0
 10
16.59103177259723
 20
8.6518276495053
 30
0.0
 41
1.0
  0
SPLINE
  5
B2
330
1F
100
AcDbEntity
  8
0
  6
Continuous
 62
     7
370
    15
100
AcDbSpline
210
0.0
220
0.0
230
1.0
 70
    12
 71
     3
 72
    23
 73
    19
 74
     0
 42
0.00000001
 43
0.00000001
 40
0.0
 40
0.0
 40
0.0
 40
0.0
 40
0.0662580134606918
 40
0.1311256967216042
 40
0.1951327405877967
 40
0.2584309902001304
 40
0.3207311112503959
 40
0.3822625174663936
 40
0.4434453140919514
 40
0.5045435456506581
 40
0.5653815561562744
 40
0.6259757633630222
 40
0.6869904734725405
 40
0.748071314147409
 40
0.8098932542566708
 40
0.8726126042759721
 40
0.9358481623873331
 40
1.0
 40
1.0
 40
1.0
 40
1.0
 10
20.1294737945619
 20
17.18952257920316
 30
0.0
 41
1.0
 10
20.21775855746224
 20
17.18825930826247
 30
0.0
 41
1.0
 10
20.39247555304609
 20
17.18575927432544
 30
0.0
 41
1.0
 10
20.65205307424723
 20
17.16905377317969
 30
0.0
 41
1.0
 10
20.90663883075017
 20
17.14068822372345
 30
0.0
 41
1.0
 10
21.15600415774843
 20
17.09966935644811
 30
0.0
 41
1.0
 10
21.40029034836672
 20
17.04920408249904
 30
0.0
 41
1.0
 10
21.63845878067303
 20
16.98516640190206
 30
0.0
 41
1.0
 10
21.87221560159305
 20
16.91182544268286
 30
0.0
 41
1.0
 10
22.10085397952042
 20
16.82622985014136
 30
0.0
 41
1.0
 10
22.32345600108172
 20
16.72800427084386
 30
0.0
 41
1.0
 10
22.5411283691481
 20
16.61954066755189
 30
0.0
 41
1.0
 10
22.75279399043445
 20
16.49910243968827
 30
0.0
 41
1.0
 10
22.95981825342142
 20
16.36780756635298
 30
0.0
 41
1.0
 10
23.16164532156961
 20
16.22464062566647
 30
0.0
 41
1.0
 10
23.35814004626069
 20
16.06965175059073
 30
0.0
 41
1.0
 10
23.5503584142149
 20
15.90444449323394
 30
0.0
 41
1.0
 10
23.67156667401428
 20
15.78556839350563
 30
0.0
 41
1.0
 10
23.73260672083973
 20
15.72570281416426
 30
0.0
 41
1.0
  0
SPLINE
  5
B3
330
1F
100
AcDbEntity
  8
0
  6
Continuous
 62
     7
370
    15
100
AcDbSpline
210
0.0
220
0.0
230
1.0
 70
    12
 71
     3
 72
    23
 73
    19
 74
     0
 42
0.00000001
 43
0.00000001
 40
0.0
 40
0.0
 40
0.0
 40
0.0
 40
0.0654166421255566
 40
0.1294240008511143
 40
0.1929450580924196
 40
0.2553791728914948
 40
0.3171893429145808
 40
0.3786066263311722
 40
0.4396847962513989
 40
0.5003400253361224
 40
0.5614612856065614
 40
0.6223511772413919
 40
0.6834975595262138
 40
0.7454495503935378
 40
0.8076477738412854
 40
0.870843322622976
 40
0.9348118218160575
 40
1.0
 40
1.0
 40
1.0
 40
1.0
 10
15.1287164471935
 20
12.18876523183466
 30
0.0
 41
1.0
 10
15.12997242302312
 20
12.27454410810345
 30
0.0
 41
1.0
 10
15.13245731695164
 20
12.4442539096846
 30
0.0
 41
1.0
 10
15.14929049721179
 20
12.69680500398305
 30
0.0
 41
1.0
 10
15.1773947106706
 20
12.9444132025438
 30
0.0
 41
1.0
 10
15.21872451700062
 20
13.18721373514723
 30
0.0
 41
1.0
 10
15.26920996990086
 20
13.42547468365172
 30
0.0
 41
1.0
 10
15.33312666721436
 20
13.65864117344674
 30
0.0
 41
1.0
 10
15.40604257904317
 20
13.8875663973018
 30
0.0
 41
1.0
 10
15.49275086805746
 20
14.11124394937463
 30
0.0
 41
1.0
 10
15.59004390743311
 20
14.33022162992429
 30
0.0
 41
1.0
 10
15.69906415600887
 20
14.54430772227942
 30
0.0
 41
1.0
 10
15.81761462476962
 20
14.75455233973118
 30
0.0
 41
1.0
 10
15.95017762826487
 20
14.95835260123616
 30
0.0
 41
1.0
 10
16.09416616029531
 20
15.15745195394137
 30
0.0
 41
1.0
 10
16.24686764199382
 20
15.35334297393428
 30
0.0
 41
1.0
 10
16.41285288050732
 20
15.54347046400218
 30
0.0
 41
1.0
 10
16.5312660672862
 20
15.66457747653203
 30
0.0
 41
1.0
 10
16.59103177259723
 20
15.72570281416426
 30
0.0
 41
1.0
  0
LINE
  5
F7
330
1F
100
AcDbEntity
  8
0
100
AcDbLine
 10
20.9121506140994
 20
8.743598467226597
 30
0.0
 11
20.91930460302382
 21
8.75075245615109
 31
0.0
  0
LINE
  5
2AB
330
1F
100
AcDbEntity
  8
0
100
AcDbLine
 10
23.4743709236356
 20
8.408753843675042
 30
0.0
 11
23.98458455141822
 21
8.918967471457664
 31
0.0
  0
LINE
  5
2AC
330
1F
100
AcDbEntity
  8
0
100
AcDbLine
 10
23.1047858697789
 20
8.114122108624121
 30
0.0
 11
24.29217271270178
 21
9.301508951546996
 31
0.0
  0
LINE
  5
2AD
330
1F
100
AcDbEntity
  8
0
100
AcDbLine
 10
22.86841297490424
 20
7.952702532555233
 30
0.0
 11
24.45926219226107
 21
9.543551749912062
 31
0.0
  0
LINE
  5
2AE
330
1F
100
AcDbEntity
  8
0
100
AcDbLine
 10
22.67703968818772
 20
7.83628256464449
 30
0.0
 11
24.58002967434485
 21
9.739272550801616
 31
0.0
  0
LINE
  5
2AF
330
1F
100
AcDbEntity
  8
0
100
AcDbLine
 10
22.51173030098722
 20
7.745926496249757
 30
0.0
 11
24.67493614021825
 21
9.909132335480793
 31
0.0
  0
LINE
  5
2B0
330
1F
100
AcDbEntity
  8
0
100
AcDbLine
 10
22.36247662037508
 20
7.671626134443399
 30
0.0
 11
24.75144834057526
 21
10.06059785464357
 31
0.0
  0
LINE
  5
2B1
330
1F
100
AcDbEntity
  8
0
100
AcDbLine
 10
22.22362704356106
 20
7.607729876435151
 30
0.0
 11
24.81613507529494
 21
10.20023790816903
 31
0.0
  0
LINE
  5
2B2
330
1F
100
AcDbEntity
  8
0
100
AcDbLine
 10
22.09318113714274
 20
7.552237288822599
 30
0.0
 11
24.87185030193886
 21
10.33090645361872
 31
0.0
  0
LINE
  5
2B3
330
1F
100
AcDbEntity
  8
0
100
AcDbLine
 10
21.97035440807721
 20
7.504363878562845
 30
0.0
 11
24.92014511942437
 21
10.45415458991001
 31
0.0
  0
LINE
  5
2B4
330
1F
100
AcDbEntity
  8
0
100
AcDbLine
 10
21.85387890578363
 20
7.462841695075043
 30
0.0
 11
24.96303067142353
 21
10.57199346071494
 31
0.0
  0
LINE
  5
2B5
330
1F
100
AcDbEntity
  8
0
100
AcDbLine
 10
21.74266722821694
 20
7.426583336314127
 30
0.0
 11
25.00104035507978
 21
10.68495646317696
 31
0.0
  0
LINE
  5
2B6
330
1F
100
AcDbEntity
  8
0
100
AcDbLine
 10
21.63549078862762
 20
7.394360215530582
 30
0.0
 11
25.03352216252372
 21
10.79239158942667
 31
0.0
  0
LINE
  5
2B7
330
1F
100
AcDbEntity
  8
0
100
AcDbLine
 10
21.5316878635162
 20
7.365510609224934
 30
0.0
 11
23.00220771308214
 21
8.83603045879087
 31
0.0
  0
LINE
  5
2B8
330
1F
100
AcDbEntity
  8
0
100
AcDbLine
 10
23.48297392190014
 20
9.31679666760887
 30
0.0
 11
25.06161961783479
 21
10.89544236354352
 31
0.0
  0
LINE
  5
2B9
330
1F
100
AcDbEntity
  8
0
100
AcDbLine
 10
21.4310525587792
 20
7.339828623293705
 30
0.0
 11
22.64973450660677
 21
8.558510571121277
 31
0.0
  0
LINE
  5
2BA
330
1F
100
AcDbEntity
  8
0
100
AcDbLine
 10
23.76175636841163
 20
9.67053243292613
 30
0.0
 11
25.08667335842228
 21
10.99544942293678
 31
0.0
  0
LINE
  5
2BB
330
1F
100
AcDbEntity
  8
0
100
AcDbLine
 10
21.33334822333748
 20
7.317077606657754
 30
0.0
 11
22.42553654644747
 21
8.409265929767749
 31
0.0
  0
LINE
  5
2BC
330
1F
100
AcDbEntity
  8
0
100
AcDbLine
 10
23.90612432478771
 20
9.889853708107983
 30
0.0
 11
25.10926293982734
 21
11.09299232314761
 31
0.0
  0
LINE
  5
2BD
330
1F
100
AcDbEntity
  8
0
100
AcDbLine
 10
21.23844532443333
 20
7.297128026559378
 30
0.0
 11
22.24518317035776
 21
8.303865872483804
 31
0.0
  0
LINE
  5
2BE
330
1F
100
AcDbEntity
  8
0
100
AcDbLine
 10
24.01363903731206
 20
10.07232173943811
 30
0.0
 11
25.12922700025032
 21
11.18790970237638
 31
0.0
  0
LINE
  5
2BF
330
1F
100
AcDbEntity
  8
0
100
AcDbLine
 10
21.14557635666107
 20
7.279212377592896
 30
0.0
 11
22.08882405400158
 21
8.222460074933407
 31
0.0
  0
LINE
  5
2C0
330
1F
100
AcDbEntity
  8
0
100
AcDbLine
 10
24.09624564949761
 20
10.22988167042943
 30
0.0
 11
25.14650395818626
 21
11.28013997911808
 31
0.0
  0
LINE
  5
2C1
330
1F
100
AcDbEntity
  8
0
100
AcDbLine
 10
21.05458926179497
 20
7.263178601532571
 30
0.0
 11
21.94594023190035
 21
8.154529571637946
 31
0.0
  0
LINE
  5
2C2
330
1F
100
AcDbEntity
  8
0
100
AcDbLine
 10
24.16352852888134
 20
10.37211786861893
 30
0.0
 11
25.16153148141491
 21
11.37012082115251
 31
0.0
  0
LINE
  5
2C3
330
1F
100
AcDbEntity
  8
0
100
AcDbLine
 10
20.96534138383982
 20
7.248884042383187
 30
0.0
 11
21.81425949620551
 21
8.097802154748882
 31
0.0
  0
LINE
  5
2C4
330
1F
100
AcDbEntity
  8
0
100
AcDbLine
 10
24.22049285505181
 20
10.50403551359518
 30
0.0
 11
25.17481057536193
 21
11.45835323390531
 31
0.0
  0
LINE
  5
2C5
330
1F
100
AcDbEntity
  8
0
100
AcDbLine
 10
20.87812685223258
 20
7.236622829581724
 30
0.0
 11
21.69226895533361
 21
8.050764932682752
 31
0.0
  0
LINE
  5
2C6
330
1F
100
AcDbEntity
  8
0
100
AcDbLine
 10
24.26809878599558
 20
10.62659476334473
 30
0.0
 11
25.18658875151407
 21
11.54508472886321
 31
0.0
  0
LINE
  5
2C7
330
1F
100
AcDbEntity
  8
0
100
AcDbLine
 10
20.7925983029598
 20
7.226047599114714
 30
0.0
 11
21.57588637185387
 21
8.009335668008791
 31
0.0
  0
LINE
  5
2C8
330
1F
100
AcDbEntity
  8
0
100
AcDbLine
 10
24.30971616170707
 20
10.74316545786199
 30
0.0
 11
25.19666072689692
 21
11.63011002305184
 31
0.0
  0
LINE
  5
2C9
330
1F
100
AcDbEntity
  8
0
100
AcDbLine
 10
20.70875160298757
 20
7.217154217948263
 30
0.0
 11
21.46416889255047
 21
7.972571507511162
 31
0.0
  0
LINE
  5
2CA
330
1F
100
AcDbEntity
  8
0
100
AcDbLine
 10
24.34610007595021
 20
10.8545026909109
 30
0.0
 11
25.20490052848752
 21
11.71330314344821
 31
0.0
  0
LINE
  5
2CB
330
1F
100
AcDbEntity
  8
0
100
AcDbLine
 10
20.6263495336172
 20
7.209705467383666
 30
0.0
 11
21.35765370079326
 21
7.941009634559728
 31
0.0
  0
LINE
  5
2CC
330
1F
100
AcDbEntity
  8
0
100
AcDbLine
 10
24.3763793813906
 20
10.95973531515706
 30
0.0
 11
25.21133643989147
 21
11.79469237365794
 31
0.0
  0
LINE
  5
2CD
330
1F
100
AcDbEntity
  8
0
100
AcDbLine
 10
20.54530136563067
 20
7.203610618202913
 30
0.0
 11
21.25575961593429
 21
7.914068868506529
 31
0.0
  0
LINE
  5
2CE
330
1F
100
AcDbEntity
  8
0
100
AcDbLine
 10
24.40233930137014
 20
11.06064855394238
 30
0.0
 11
25.21614351886091
 21
11.87445277143315
 31
0.0
  0
LINE
  5
2CF
330
1F
100
AcDbEntity
  8
0
100
AcDbLine
 10
20.4655578247133
 20
7.198820396091316
 30
0.0
 11
21.15745594130642
 21
7.890718512684429
 31
0.0
  0
LINE
  5
2D0
330
1F
100
AcDbEntity
  8
0
100
AcDbLine
 10
24.42594850042061
 20
11.15921107179862
 30
0.0
 11
25.21960932722277
 21
11.95287189860078
 31
0.0
  0
LINE
  5
2D1
330
1F
100
AcDbEntity
  8
0
100
AcDbLine
 10
20.38705551878488
 20
7.195271408968671
 30
0.0
 11
21.06219532195181
 21
7.870411212135593
 31
0.0
  0
LINE
  5
2D2
330
1F
100
AcDbEntity
  8
0
100
AcDbLine
 10
24.4473077952518
 20
11.25552368543558
 30
0.0
 11
25.2219871108007
 21
12.03020300098449
 31
0.0
  0
LINE
  5
2D3
330
1F
100
AcDbEntity
  8
0
100
AcDbLine
 10
20.30965194209901
 20
7.192821151088572
 30
0.0
 11
20.96989292626864
 21
7.853062135258202
 31
0.0
  0
LINE
  5
2D4
330
1F
100
AcDbEntity
  8
0
100
AcDbLine
 10
24.46543492165599
 20
11.34860413064555
 30
0.0
 11
25.22363850194798
 21
12.10680771093754
 31
0.0
  0
LINE
  5
2D5
330
1F
100
AcDbEntity
  8
0
100
AcDbLine
 10
20.23302583913604
 20
7.191148366931373
 30
0.0
 11
20.88002002008516
 21
7.838142547880495
 31
0.0
  0
LINE
  5
2D6
330
1F
100
AcDbEntity
  8
0
100
AcDbLine
 10
24.48034997614046
 20
11.4384725039358
 30
0.0
 11
25.22491947841107
 21
12.1830420062064
 31
0.0
  0
LINE
  5
2D7
330
1F
100
AcDbEntity
  8
0
100
AcDbLine
 10
20.15683621472676
 20
7.189912061327867
 30
0.0
 11
20.79209799401203
 21
7.825173840613139
 31
0.0
  0
LINE
  5
2D8
330
1F
100
AcDbEntity
  8
0
100
AcDbLine
 10
24.49305964410806
 20
11.52613549070917
 30
0.0
 11
25.22389066851311
 21
12.25696651511421
 31
0.0
  0
LINE
  5
2D9
330
1F
100
AcDbEntity
  8
0
100
AcDbLine
 10
20.08220519247392
 20
7.190234357880798
 30
0.0
 11
20.70601049123783
 21
7.814039656644711
 31
0.0
  0
LINE
  5
2DA
330
1F
100
AcDbEntity
  8
0
100
AcDbLine
 10
24.50414234864115
 20
11.61217151404803
 30
0.0
 11
25.2224114359927
 21
12.33044060139959
 31
0.0
  0
LINE
  5
2DB
330
1F
100
AcDbEntity
  8
0
100
AcDbLine
 10
20.00856858119129
 20
7.191551065403942
 30
0.0
 11
20.62155998628001
 21
7.804542470492663
 31
0.0
  0
LINE
  5
2DC
330
1F
100
AcDbEntity
  8
0
100
AcDbLine
 10
24.51367340534257
 20
11.69665588955523
 30
0.0
 11
25.22037608255145
 21
12.40335856676411
 31
0.0
  0
LINE
  5
2DD
330
1F
100
AcDbEntity
  8
0
100
AcDbLine
 10
19.93542348915683
 20
7.193359292175261
 30
0.0
 11
20.53878067095716
 21
7.79671647397559
 31
0.0
  0
LINE
  5
2DE
330
1F
100
AcDbEntity
  8
0
100
AcDbLine
 10
24.52153436220915
 20
11.77947016522757
 30
0.0
 11
25.21752331593828
 21
12.47545911895671
 31
0.0
  0
LINE
  5
2DF
330
1F
100
AcDbEntity
  8
0
100
AcDbLine
 10
19.86304486759044
 20
7.195933989414637
 30
0.0
 11
20.45772916426329
 21
7.790618286087492
 31
0.0
  0
LINE
  5
2E0
330
1F
100
AcDbEntity
  8
0
100
AcDbLine
 10
24.527634651665
 20
11.8605237734892
 30
0.0
 11
25.2136994236457
 21
12.5465885454699
 31
0.0
  0
LINE
  5
2E1
330
1F
100
AcDbEntity
  8
0
100
AcDbLine
 10
19.79161641033236
 20
7.199458850962333
 30
0.0
 11
20.378382255521
 21
7.786224696150976
 31
0.0
  0
LINE
  5
2E2
330
1F
100
AcDbEntity
  8
0
100
AcDbLine
 10
24.53201726607798
 20
11.93985970670795
 30
0.0
 11
25.2088525363924
 21
12.61669497702237
 31
0.0
  0
LINE
  5
2E3
330
1F
100
AcDbEntity
  8
0
100
AcDbLine
 10
19.7211298568573
 20
7.203925616293044
 30
0.0
 11
20.30064848569805
 21
7.783444245133803
 31
0.0
  0
LINE
  5
2E4
330
1F
100
AcDbEntity
  8
0
100
AcDbLine
 10
24.5347906818957
 20
12.01758644133145
 30
0.0
 11
25.20294488899596
 21
12.68574064843171
 31
0.0
  0
LINE
  5
2E5
330
1F
100
AcDbEntity
  8
0
100
AcDbLine
 10
19.65154441068353
 20
7.20929348892505
 30
0.0
 11
20.22411565681528
 21
7.781864735056806
 31
0.0
  0
LINE
  5
2E6
330
1F
100
AcDbEntity
  8
0
100
AcDbLine
 10
24.5363699326628
 20
12.09411901090432
 30
0.0
 11
25.19595053792515
 21
12.75369961616667
 31
0.0
  0
LINE
  5
2E7
330
1F
100
AcDbEntity
  8
0
100
AcDbLine
 10
19.58290569921176
 20
7.215608096259055
 30
0.0
 11
20.14824507325264
 21
7.780947470299936
 31
0.0
  0
LINE
  5
2E8
330
1F
100
AcDbEntity
  8
0
100
AcDbLine
 10
24.53729053081624
 20
12.16999292786354
 30
0.0
 11
25.18803694042553
 21
12.82073933747283
 31
0.0
  0
LINE
  5
2E9
330
1F
100
AcDbEntity
  8
0
100
AcDbLine
 10
19.51503964233075
 20
7.222695358183817
 30
0.0
 11
20.07445366972494
 21
7.782109385578007
 31
0.0
  0
LINE
  5
2EA
330
1F
100
AcDbEntity
  8
0
100
AcDbLine
 10
24.53688501017414
 20
12.24454072602721
 30
0.0
 11
25.17937032123229
 21
12.88702603708536
 31
0.0
  0
LINE
  5
2EB
330
1F
100
AcDbEntity
  8
0
100
AcDbLine
 10
19.44802409704654
 20
7.230633131705383
 30
0.0
 11
20.00148897161059
 21
7.784098006269438
 31
0.0
  0
LINE
  5
2EC
330
1F
100
AcDbEntity
  8
0
100
AcDbLine
 10
24.53576959150639
 20
12.31837862616524
 30
0.0
 11
25.16994512939335
 21
12.95255416405219
 31
0.0
  0
LINE
  5
2ED
330
1F
100
AcDbEntity
  8
0
100
AcDbLine
 10
19.38186299034875
 20
7.239425343813373
 30
0.0
 11
19.92894116057602
 21
7.786503514040638
 31
0.0
  0
LINE
  5
2EE
330
1F
100
AcDbEntity
  8
0
100
AcDbLine
 10
20.88603611376198
 20
8.7435984672266
 30
0.0
 11
20.91930460302382
 21
8.776866956488439
 31
0.0
  0
LINE
  5
2EF
330
1F
100
AcDbEntity
  8
0
100
AcDbLine
 10
24.53384178957262
 20
12.39140414303724
 30
0.0
 11
25.15993408571219
 21
13.0174964391768
 31
0.0
  0
LINE
  5
2F0
330
1F
100
AcDbEntity
  8
0
100
AcDbLine
 10
19.31654325229496
 20
7.249058924565348
 30
0.0
 11
19.85708626141227
 21
7.78960193368266
 31
0.0
  0
LINE
  5
2F1
330
1F
100
AcDbEntity
  8
0
100
AcDbLine
 10
20.81108279495621
 20
8.743598467226596
 30
0.0
 11
20.91930460302382
 21
8.851820275294216
 31
0.0
  0
LINE
  5
2F2
330
1F
100
AcDbEntity
  8
0
100
AcDbLine
 10
24.5307695468359
 20
12.46328521910629
 30
0.0
 11
25.14928294670921
 21
13.0817986189796
 31
0.0
  0
LINE
  5
2F3
330
1F
100
AcDbEntity
  8
0
100
AcDbLine
 10
19.25200467715542
 20
7.25947366823158
 30
0.0
 11
19.78606097873427
 21
7.793529969810434
 31
0.0
  0
LINE
  5
2F4
330
1F
100
AcDbEntity
  8
0
100
AcDbLine
 10
20.73612947615043
 20
8.743598467226597
 30
0.0
 11
20.91930460302382
 21
8.926773594099988
 31
0.0
  0
LINE
  5
2F5
330
1F
100
AcDbEntity
  8
0
100
AcDbLine
 10
24.52648484433501
 20
12.53395383541117
 30
0.0
 11
25.13778940549935
 21
13.14525839657551
 31
0.0
  0
LINE
  5
2F6
330
1F
100
AcDbEntity
  8
0
100
AcDbLine
 10
19.18818882533031
 20
7.270611135212248
 30
0.0
 11
19.71617128929536
 21
7.798593599177301
 31
0.0
  0
LINE
  5
2F7
330
1F
100
AcDbEntity
  8
0
100
AcDbLine
 10
20.66117615734466
 20
8.743598467226594
 30
0.0
 11
20.91930460302382
 21
9.001726912905761
 31
0.0
  0
LINE
  5
2F8
330
1F
100
AcDbEntity
  8
0
100
AcDbLine
 10
24.52108160593437
 20
12.60350391581631
 30
0.0
 11
25.12552997702543
 21
13.20795228690737
 31
0.0
  0
LINE
  5
2F9
330
1F
100
AcDbEntity
  8
0
100
AcDbLine
 10
19.12498424015642
 20
7.282359868844129
 30
0.0
 11
19.64737621860324
 21
7.804751847290954
 31
0.0
  0
LINE
  5
2FA
330
1F
100
AcDbEntity
  8
0
100
AcDbLine
 10
20.58622283853888
 20
8.743598467226596
 30
0.0
 11
20.91930460302382
 21
9.076680231711533
 31
0.0
  0
LINE
  5
2FB
330
1F
100
AcDbEntity
  8
0
100
AcDbLine
 10
24.51457059234126
 20
12.67194622102897
 30
0.0
 11
25.11251835097941
 21
13.26989397966712
 31
0.0
  0
LINE
  5
2FC
330
1F
100
AcDbEntity
  8
0
100
AcDbLine
 10
19.06237370035048
 20
7.294702647843962
 30
0.0
 11
19.579912576593
 21
7.812241524086483
 31
0.0
  0
LINE
  5
2FD
330
1F
100
AcDbEntity
  8
0
100
AcDbLine
 10
20.51126951973311
 20
8.743598467226597
 30
0.0
 11
20.91930460302382
 21
9.151633550517309
 31
0.0
  0
LINE
  5
2FE
330
1F
100
AcDbEntity
  8
0
100
AcDbLine
 10
24.50722861289696
 20
12.73955756039044
 30
0.0
 11
25.09873395585047
 21
13.33106290334396
 31
0.0
  0
LINE
  5
2FF
330
1F
100
AcDbEntity
  8
0
100
AcDbLine
 10
19.00035313698589
 20
7.307635403285146
 30
0.0
 11
19.51345053310341
 21
7.820732799402666
 31
0.0
  0
LINE
  5
300
330
1F
100
AcDbEntity
  8
0
100
AcDbLine
 10
20.43631620092734
 20
8.743598467226597
 30
0.0
 11
20.91930460302382
 21
9.22658686932308
 31
0.0
  0
LINE
  5
301
330
1F
100
AcDbEntity
  8
0
100
AcDbLine
 10
24.49905527551935
 20
12.80633754181861
 30
0.0
 11
25.08435495162501
 21
13.39163721792427
 31
0.0
  0
LINE
  5
302
330
1F
100
AcDbEntity
  8
0
100
AcDbLine
 10
18.93897993074093
 20
7.321215515845967
 30
0.0
 11
19.44807304925013
 21
7.830308634355164
 31
0.0
  0
LINE
  5
303
330
1F
100
AcDbEntity
  8
0
100
AcDbLine
 10
20.36136288212156
 20
8.743598467226596
 30
0.0
 11
20.91930460302382
 21
9.301540188128854
 31
0.0
  0
LINE
  5
304
330
1F
100
AcDbEntity
  8
0
100
AcDbLine
 10
24.49013555815399
 20
12.87237114325902
 30
0.0
 11
25.06945966750463
 21
13.45169525260966
 31
0.0
  0
LINE
  5
305
330
1F
100
AcDbEntity
  8
0
100
AcDbLine
 10
18.87843750065258
 20
7.335626404563384
 30
0.0
 11
19.3836179799248
 21
7.840806883835605
 31
0.0
  0
LINE
  5
306
330
1F
100
AcDbEntity
  8
0
100
AcDbLine
 10
20.28640956331579
 20
8.743598467226597
 30
0.0
 11
20.91930460302382
 21
9.376493506934626
 31
0.0
  0
LINE
  5
307
330
1F
100
AcDbEntity
  8
0
100
AcDbLine
 10
24.48055177782829
 20
12.93774068173909
 30
0.0
 11
25.05398954601128
 21
13.51117844992208
 31
0.0
  0
LINE
  5
308
330
1F
100
AcDbEntity
  8
0
100
AcDbLine
 10
18.81861938075598
 20
7.350761603472554
 30
0.0
 11
19.32000256535019
 21
7.852144788066771
 31
0.0
  0
LINE
  5
309
330
1F
100
AcDbEntity
  8
0
100
AcDbLine
 10
20.21145624451001
 20
8.743598467226596
 30
0.0
 11
20.91930460302382
 21
9.451446825740401
 31
0.0
  0
LINE
  5
30A
330
1F
100
AcDbEntity
  8
0
100
AcDbLine
 10
24.47005708604624
 20
13.00219930876282
 30
0.0
 11
25.03782535600217
 21
13.56996757871875
 31
0.0
  0
LINE
  5
30B
330
1F
100
AcDbEntity
  8
0
100
AcDbLine
 10
18.75947984760741
 20
7.366575389129757
 30
0.0
 11
19.25732683464622
 21
7.864422376168576
 31
0.0
  0
LINE
  5
30C
330
1F
100
AcDbEntity
  8
0
100
AcDbLine
 10
20.13650292570425
 20
8.7435984672266
 30
0.0
 11
20.91930460302382
 21
9.526400144546173
 31
0.0
  0
LINE
  5
30D
330
1F
100
AcDbEntity
  8
0
100
AcDbLine
 10
24.45861158490754
 20
13.0657071264299
 30
0.0
 11
25.02095307127591
 21
13.62804861279826
 31
0.0
  0
LINE
  5
30E
330
1F
100
AcDbEntity
  8
0
100
AcDbLine
 10
18.70099910043245
 20
7.383047960760582
 30
0.0
 11
19.19532833997729
 21
7.877377200305414
 31
0.0
  0
LINE
  5
30F
330
1F
100
AcDbEntity
  8
0
100
AcDbLine
 10
20.06154960689847
 20
8.743598467226596
 30
0.0
 11
20.91930460302382
 21
9.601353463351947
 31
0.0
  0
LINE
  5
310
330
1F
100
AcDbEntity
  8
0
100
AcDbLine
 10
24.44601010713068
 20
13.1280589674588
 30
0.0
 11
25.00331509112237
 21
13.68536395145049
 31
0.0
  0
LINE
  5
311
330
1F
100
AcDbEntity
  8
0
100
AcDbLine
 10
18.64317647179662
 20
7.40017865093052
 30
0.0
 11
19.13409244176087
 21
7.891094620894767
 31
0.0
  0
LINE
  5
312
330
1F
100
AcDbEntity
  8
0
100
AcDbLine
 10
19.9865962880927
 20
8.743598467226597
 30
0.0
 11
20.91930460302382
 21
9.676306782157718
 31
0.0
  0
LINE
  5
313
330
1F
100
AcDbEntity
  8
0
100
AcDbLine
 10
24.43254767586646
 20
13.18954985500036
 30
0.0
 11
24.98488602645695
 21
13.74188820559085
 31
0.0
  0
LINE
  5
314
330
1F
100
AcDbEntity
  8
0
100
AcDbLine
 10
18.5858811808426
 20
7.417836678782273
 30
0.0
 11
19.07362432315269
 21
7.905579821092358
 31
0.0
  0
LINE
  5
315
330
1F
100
AcDbEntity
  8
0
100
AcDbLine
 10
19.91164296928692
 20
8.743598467226597
 30
0.0
 11
20.91930460302382
 21
9.751260100963492
 31
0.0
  0
LINE
  5
316
330
1F
100
AcDbEntity
  8
0
100
AcDbLine
 10
24.41841525314121
 20
13.25037075108089
 30
0.0
 11
24.96577017866324
 21
13.79772567660291
 31
0.0
  0
LINE
  5
317
330
1F
100
AcDbEntity
  8
0
100
AcDbLine
 10
18.52915065367994
 20
7.436059470425388
 30
0.0
 11
19.01400572953524
 21
7.920914546280686
 31
0.0
  0
LINE
  5
318
330
1F
100
AcDbEntity
  8
0
100
AcDbLine
 10
19.83668965048115
 20
8.7435984672266
 30
0.0
 11
20.91930460302382
 21
9.826213419769267
 31
0.0
  0
LINE
  5
319
330
1F
100
AcDbEntity
  8
0
100
AcDbLine
 10
24.4038545196967
 20
13.31076333644215
 30
0.0
 11
24.94610790822409
 21
13.85301672496953
 31
0.0
  0
LINE
  5
31A
330
1F
100
AcDbEntity
  8
0
100
AcDbLine
 10
18.47298715567839
 20
7.454849291229605
 30
0.0
 11
18.95513998325143
 21
7.937002118802654
 31
0.0
  0
LINE
  5
31B
330
1F
100
AcDbEntity
  8
0
100
AcDbLine
 10
19.76173633167538
 20
8.743598467226597
 30
0.0
 11
20.91930460302382
 21
9.90116673857504
 31
0.0
  0
LINE
  5
31C
330
1F
100
AcDbEntity
  8
0
100
AcDbLine
 10
24.38885041036565
 20
13.37071254591687
 30
0.0
 11
24.92593830124943
 21
13.90780043680065
 31
0.0
  0
LINE
  5
31D
330
1F
100
AcDbEntity
  8
0
100
AcDbLine
 10
18.41737906055693
 20
7.474194514913926
 30
0.0
 11
18.89701999441184
 21
7.953835448768838
 31
0.0
  0
LINE
  5
31E
330
1F
100
AcDbEntity
  8
0
100
AcDbLine
 10
19.6867830128696
 20
8.743598467226597
 30
0.0
 11
20.91930460302382
 21
9.976120057380813
 31
0.0
  0
LINE
  5
31F
330
1F
100
AcDbEntity
  8
0
100
AcDbLine
 10
24.37313617247108
 20
13.42995162682807
 30
0.0
 11
24.90530701853877
 21
13.96212247289576
 31
0.0
  0
LINE
  5
320
330
1F
100
AcDbEntity
  8
0
100
AcDbLine
 10
18.36237286963814
 20
7.494141642800906
 30
0.0
 11
18.83963369353528
 21
7.971402466698053
 31
0.0
  0
LINE
  5
321
330
1F
100
AcDbEntity
  8
0
100
AcDbLine
 10
19.66911526617839
 20
8.800884039341154
 30
0.0
 11
20.91930460302382
 21
10.05107337618658
 31
0.0
  0
LINE
  5
322
330
1F
100
AcDbEntity
  8
0
100
AcDbLine
 10
24.356570614027
 20
13.48833938718977
 30
0.0
 11
24.88417367476376
 21
14.01594244792653
 31
0.0
  0
LINE
  5
323
330
1F
100
AcDbEntity
  8
0
100
AcDbLine
 10
18.30794296561868
 20
7.51466505758722
 30
0.0
 11
18.78296486175242
 21
7.989686953720965
 31
0.0
  0
LINE
  5
324
330
1F
100
AcDbEntity
  8
0
100
AcDbLine
 10
19.66911526617839
 20
8.87583735814693
 30
0.0
 11
20.91930460302381
 21
10.12602669499236
 31
0.0
  0
LINE
  5
325
330
1F
100
AcDbEntity
  8
0
100
AcDbLine
 10
24.33885373917838
 20
13.54557583114692
 30
0.0
 11
24.86251007275947
 21
14.06923216472801
 31
0.0
  0
LINE
  5
326
330
1F
100
AcDbEntity
  8
0
100
AcDbLine
 10
18.25410715061971
 20
7.535782561394022
 30
0.0
 11
18.72698551760732
 21
8.008660928381637
 31
0.0
  0
LINE
  5
327
330
1F
100
AcDbEntity
  8
0
100
AcDbLine
 10
19.66911526617839
 20
8.950790676952703
 30
0.0
 11
20.91930460302382
 21
10.20098001379813
 31
0.0
  0
LINE
  5
328
330
1F
100
AcDbEntity
  8
0
100
AcDbLine
 10
24.32033355972673
 20
13.60200897050105
 30
0.0
 11
24.84029352542652
 21
14.12196893620083
 31
0.0
  0
LINE
  5
329
330
1F
100
AcDbEntity
  8
0
100
AcDbLine
 10
18.20094143703033
 20
7.557570166610423
 30
0.0
 11
18.67166851314798
 21
8.028297242728069
 31
0.0
  0
LINE
  5
32A
330
1F
100
AcDbEntity
  8
0
100
AcDbLine
 10
19.66911526617839
 20
9.025743995758475
 30
0.0
 11
20.91930460302381
 21
10.2759333326039
 31
0.0
  0
LINE
  5
32B
330
1F
100
AcDbEntity
  8
0
100
AcDbLine
 10
24.30112604496263
 20
13.65775477454272
 30
0.0
 11
24.81752916379952
 21
14.1741578933796
 31
0.0
  0
LINE
  5
32C
330
1F
100
AcDbEntity
  8
0
100
AcDbLine
 10
18.14841048900271
 20
7.579992537388571
 30
0.0
 11
18.61708112818956
 21
8.048663176575419
 31
0.0
  0
LINE
  5
32D
330
1F
100
AcDbEntity
  8
0
100
AcDbLine
 10
19.66911526617839
 20
9.100697314564252
 30
0.0
 11
20.91930460302381
 21
10.35088665140968
 31
0.0
  0
LINE
  5
32E
330
1F
100
AcDbEntity
  8
0
100
AcDbLine
 10
24.28146823134788
 20
13.71305027973374
 30
0.0
 11
24.79423920028177
 21
14.22582124866763
 31
0.0
  0
LINE
  5
32F
330
1F
100
AcDbEntity
  8
0
100
AcDbLine
 10
18.09643659849994
 20
7.602971965691576
 30
0.0
 11
18.56315505881025
 21
8.069690426001886
 31
0.0
  0
LINE
  5
330
330
1F
100
AcDbEntity
  8
0
100
AcDbLine
 10
19.66911526617839
 20
9.175650633370024
 30
0.0
 11
20.91930460302382
 21
10.42583997021545
 31
0.0
  0
LINE
  5
331
330
1F
100
AcDbEntity
  8
0
100
AcDbLine
 10
24.26142393734884
 20
13.76795930454047
 30
0.0
 11
24.77045042877472
 21
14.27698579596635
 31
0.0
  0
LINE
  5
332
330
1F
100
AcDbEntity
  8
0
100
AcDbLine
 10
18.04496506566033
 20
7.62645375165774
 30
0.0
 11
18.50981895046206
 21
8.091307636459467
 31
0.0
  0
LINE
  5
333
330
1F
100
AcDbEntity
  8
0
100
AcDbLine
 10
19.66911526617839
 20
9.250603952175798
 30
0.0
 11
20.91930460302382
 21
10.50079328902123
 31
0.0
  0
LINE
  5
334
330
1F
100
AcDbEntity
  8
0
100
AcDbLine
 10
24.24077615221207
 20
13.82226483820948
 30
0.0
 11
24.74619928816259
 21
14.32768797415999
 31
0.0
  0
LINE
  5
335
330
1F
100
AcDbEntity
  8
0
100
AcDbLine
 10
17.99394325356518
 20
7.650385258368366
 30
0.0
 11
18.45705542903569
 21
8.113497433838873
 31
0.0
  0
LINE
  5
336
330
1F
100
AcDbEntity
  8
0
100
AcDbLine
 10
19.66911526617839
 20
9.32555727098157
 30
0.0
 11
20.91930460302381
 21
10.575746607827
 31
0.0
  0
LINE
  5
337
330
1F
100
AcDbEntity
  8
0
100
AcDbLine
 10
24.2194944541063
 20
13.87593645890948
 30
0.0
 11
24.72145019450623
 21
14.37789219930941
 31
0.0
  0
LINE
  5
338
330
1F
100
AcDbEntity
  8
0
100
AcDbLine
 10
17.94336776801038
 20
7.67476309161934
 30
0.0
 11
18.40485089365585
 21
8.13624621726481
 31
0.0
  0
LINE
  5
339
330
1F
100
AcDbEntity
  8
0
100
AcDbLine
 10
19.66911526617839
 20
9.400510589787345
 30
0.0
 11
20.91930460302382
 21
10.65069992663277
 31
0.0
  0
LINE
  5
33A
330
1F
100
AcDbEntity
  8
0
100
AcDbLine
 10
24.19744752926884
 20
13.92884285287779
 30
0.0
 11
24.69622080919272
 21
14.42761613280168
 31
0.0
  0
LINE
  5
33B
330
1F
100
AcDbEntity
  8
0
100
AcDbLine
 10
17.89319719683358
 20
7.699545839248315
 30
0.0
 11
18.35320063964031
 21
8.159549282055039
 31
0.0
  0
LINE
  5
33C
330
1F
100
AcDbEntity
  8
0
100
AcDbLine
 10
19.66911526617839
 20
9.475463908593117
 30
0.0
 11
20.91930460302381
 21
10.72565324543855
 31
0.0
  0
LINE
  5
33D
330
1F
100
AcDbEntity
  8
0
100
AcDbLine
 10
24.17462301391756
 20
13.98097165633229
 30
0.0
 11
24.67048693508639
 21
14.47683557750112
 31
0.0
  0
LINE
  5
33E
330
1F
100
AcDbEntity
  8
0
100
AcDbLine
 10
17.84344737824229
 20
7.724749339462798
 30
0.0
 11
18.30224085507786
 21
8.183542816298358
 31
0.0
  0
LINE
  5
33F
330
1F
100
AcDbEntity
  8
0
100
AcDbLine
 10
19.66911526617839
 20
9.550417227398894
 30
0.0
 11
20.91930460302381
 21
10.80060656424432
 31
0.0
  0
LINE
  5
340
330
1F
100
AcDbEntity
  8
0
100
AcDbLine
 10
24.15121860821368
 20
14.03252056943418
 30
0.0
 11
24.64422495864337
 21
14.52552691986388
 31
0.0
  0
LINE
  5
341
330
1F
100
AcDbEntity
  8
0
100
AcDbLine
 10
17.79413008750965
 20
7.750385367535924
 30
0.0
 11
18.25186577635783
 21
8.20812105638411
 31
0.0
  0
LINE
  5
342
330
1F
100
AcDbEntity
  8
0
100
AcDbLine
 10
19.66911526617839
 20
9.625370546204666
 30
0.0
 11
20.91930460302381
 21
10.87555988305009
 31
0.0
  0
LINE
  5
343
330
1F
100
AcDbEntity
  8
0
100
AcDbLine
 10
24.12728101891445
 20
14.08353629894073
 30
0.0
 11
24.61738960843151
 21
14.57364488845779
 31
0.0
  0
LINE
  5
344
330
1F
100
AcDbEntity
  8
0
100
AcDbLine
 10
17.74522976743957
 20
7.776438366271623
 30
0.0
 11
18.20204504367906
 21
8.233253642511112
 31
0.0
  0
LINE
  5
345
330
1F
100
AcDbEntity
  8
0
100
AcDbLine
 10
19.66911526617839
 20
9.70032386501044
 30
0.0
 11
20.91930460302381
 21
10.95051320185586
 31
0.0
  0
LINE
  5
346
330
1F
100
AcDbEntity
  8
0
100
AcDbLine
 10
24.10286611615492
 20
14.13407471498697
 30
0.0
 11
24.59002209193627
 21
14.62123069076832
 31
0.0
  0
LINE
  5
347
330
1F
100
AcDbEntity
  8
0
100
AcDbLine
 10
17.6968189031859
 20
7.802980820823725
 30
0.0
 11
18.15277646197018
 21
8.258938379608
 31
0.0
  0
LINE
  5
348
330
1F
100
AcDbEntity
  8
0
100
AcDbLine
 10
19.66911526617839
 20
9.775277183816215
 30
0.0
 11
20.91930460302381
 21
11.02546652066164
 31
0.0
  0
LINE
  5
349
330
1F
100
AcDbEntity
  8
0
100
AcDbLine
 10
24.07793551368237
 20
14.18409743132019
 30
0.0
 11
24.56219445397651
 21
14.66835637161434
 31
0.0
  0
LINE
  5
34A
330
1F
100
AcDbEntity
  8
0
100
AcDbLine
 10
17.64891704436147
 20
7.83003228080507
 30
0.0
 11
18.1040578147869
 21
8.285173051230498
 31
0.0
  0
LINE
  5
34B
330
1F
100
AcDbEntity
  8
0
100
AcDbLine
 10
19.66911526617839
 20
9.850230502621987
 30
0.0
 11
20.91930460302381
 21
11.10041983946741
 31
0.0
  0
LINE
  5
34C
330
1F
100
AcDbEntity
  8
0
100
AcDbLine
 10
24.05241460338476
 20
14.23352983982836
 30
0.0
 11
24.53395106676811
 21
14.71506630321171
 31
0.0
  0
LINE
  5
34D
330
1F
100
AcDbEntity
  8
0
100
AcDbLine
 10
17.60161005132505
 20
7.85767860657442
 30
0.0
 11
18.05602519425265
 21
8.312093749502019
 31
0.0
  0
LINE
  5
34E
330
1F
100
AcDbEntity
  8
0
100
AcDbLine
 10
19.66911526617839
 20
9.92518382142776
 30
0.0
 11
20.91930460302381
 21
11.17537315827318
 31
0.0
  0
LINE
  5
34F
330
1F
100
AcDbEntity
  8
0
100
AcDbLine
 10
24.02623842979946
 20
14.28230698504883
 30
0.0
 11
24.50530940336222
 21
14.76137795861159
 31
0.0
  0
LINE
  5
350
330
1F
100
AcDbEntity
  8
0
100
AcDbLine
 10
17.55491385365264
 20
7.885935727707781
 30
0.0
 11
18.00856470491073
 21
8.339586578965879
 31
0.0
  0
LINE
  5
351
330
1F
100
AcDbEntity
  8
0
100
AcDbLine
 10
19.66911526617839
 20
10.00013714023353
 30
0.0
 11
20.91930460302381
 21
11.25032647707896
 31
0.0
  0
LINE
  5
352
330
1F
100
AcDbEntity
  8
0
100
AcDbLine
 10
23.99940665794722
 20
14.33042853200236
 30
0.0
 11
24.47632241433741
 21
14.80734428839255
 31
0.0
  0
LINE
  5
353
330
1F
100
AcDbEntity
  8
0
100
AcDbLine
 10
17.5088090491084
 20
7.91478424196932
 30
0.0
 11
17.96160393629113
 21
8.367579129152045
 31
0.0
  0
LINE
  5
354
330
1F
100
AcDbEntity
  8
0
100
AcDbLine
 10
19.66911526617839
 20
10.07509045903931
 30
0.0
 11
20.91930460302381
 21
11.32527979588473
 31
0.0
  0
LINE
  5
355
330
1F
100
AcDbEntity
  8
0
100
AcDbLine
 10
23.97199266318231
 20
14.37796785604323
 30
0.0
 11
24.44695118847246
 21
14.85292638133338
 31
0.0
  0
LINE
  5
356
330
1F
100
AcDbEntity
  8
0
100
AcDbLine
 10
17.46323474693547
 20
7.944163258602168
 30
0.0
 11
17.91512547790146
 21
8.396053989568147
 31
0.0
  0
LINE
  5
357
330
1F
100
AcDbEntity
  8
0
100
AcDbLine
 10
19.66911526617838
 20
10.15004377784508
 30
0.0
 11
20.91930460302381
 21
11.4002331146905
 31
0.0
  0
LINE
  5
358
330
1F
100
AcDbEntity
  8
0
100
AcDbLine
 10
23.94408660953738
 20
14.42501512120407
 30
0.0
 11
24.41717243979029
 21
14.89810095145698
 31
0.0
  0
LINE
  5
359
330
1F
100
AcDbEntity
  8
0
100
AcDbLine
 10
17.41811789940027
 20
7.973999729872733
 30
0.0
 11
17.86915034236158
 21
8.425032172834046
 31
0.0
  0
LINE
  5
35A
330
1F
100
AcDbEntity
  8
0
100
AcDbLine
 10
19.66911526617839
 20
10.22499709665086
 30
0.0
 11
20.91930460302381
 21
11.47518643349628
 31
0.0
  0
LINE
  5
35B
330
1F
100
AcDbEntity
  8
0
100
AcDbLine
 10
23.91576557317601
 20
14.47164740364848
 30
0.0
 11
24.38693857483966
 21
14.94282040531213
 31
0.0
  0
LINE
  5
35C
330
1F
100
AcDbEntity
  8
0
100
AcDbLine
 10
17.37338721736852
 20
8.004222366646763
 30
0.0
 11
17.82376334801549
 21
8.454598497293734
 31
0.0
  0
LINE
  5
35D
330
1F
100
AcDbEntity
  8
0
100
AcDbLine
 10
19.66911526617839
 20
10.29995041545663
 30
0.0
 11
20.91930460302381
 21
11.55013975230205
 31
0.0
  0
LINE
  5
35E
330
1F
100
AcDbEntity
  8
0
100
AcDbLine
 10
23.88704467290168
 20
14.51787982217992
 30
0.0
 11
24.35620374219431
 21
14.98703889147255
 31
0.0
  0
LINE
  5
35F
330
1F
100
AcDbEntity
  8
0
100
AcDbLine
 10
17.32900884369642
 20
8.034797311780434
 30
0.0
 11
17.77879854675875
 21
8.484587014842765
 31
0.0
  0
LINE
  5
360
330
1F
100
AcDbEntity
  8
0
100
AcDbLine
 10
19.66911526617839
 20
10.3749037342624
 30
0.0
 11
20.91930460302381
 21
11.62509307110782
 31
0.0
  0
LINE
  5
361
330
1F
100
AcDbEntity
  8
0
100
AcDbLine
 10
23.8578727634191
 20
14.56366123150311
 30
0.0
 11
24.3250443810895
 21
15.03083284917351
 31
0.0
  0
LINE
  5
362
330
1F
100
AcDbEntity
  8
0
100
AcDbLine
 10
17.28493006276373
 20
8.065671849653516
 30
0.0
 11
17.73421346006317
 21
8.514955246952955
 31
0.0
  0
LINE
  5
363
330
1F
100
AcDbEntity
  8
0
100
AcDbLine
 10
19.66911526617839
 20
10.44985705306818
 30
0.0
 11
20.91930460302381
 21
11.7000463899136
 31
0.0
  0
LINE
  5
364
330
1F
100
AcDbEntity
  8
0
100
AcDbLine
 10
23.82818588942963
 20
14.60892767631942
 30
0.0
 11
24.29348772667667
 21
15.07422951356646
 31
0.0
  0
LINE
  5
365
330
1F
100
AcDbEntity
  8
0
100
AcDbLine
 10
17.24117327836816
 20
8.096868384063722
 30
0.0
 11
17.69012681393608
 21
8.545821919631637
 31
0.0
  0
LINE
  5
366
330
1F
100
AcDbEntity
  8
0
100
AcDbLine
 10
19.66911526617839
 20
10.52481037187395
 30
0.0
 11
20.91930460302381
 21
11.77499970871937
 31
0.0
  0
LINE
  5
367
330
1F
100
AcDbEntity
  8
0
100
AcDbLine
 10
23.79792830332563
 20
14.65362340902119
 30
0.0
 11
24.26156091766751
 21
15.11725602336307
 31
0.0
  0
LINE
  5
368
330
1F
100
AcDbEntity
  8
0
100
AcDbLine
 10
17.19775460417489
 20
8.128403028676228
 30
0.0
 11
17.64648512872217
 21
8.577133553223504
 31
0.0
  0
LINE
  5
369
330
1F
100
AcDbEntity
  8
0
100
AcDbLine
 10
19.66911526617838
 20
10.59976369067972
 30
0.0
 11
20.91930460302381
 21
11.84995302752514
 31
0.0
  0
LINE
  5
36A
330
1F
100
AcDbEntity
  8
0
100
AcDbLine
 10
23.76710331666944
 20
14.69775174117077
 30
0.0
 11
24.22928693502095
 21
15.15993535952228
 31
0.0
  0
LINE
  5
36B
330
1F
100
AcDbEntity
  8
0
100
AcDbLine
 10
17.15469005444524
 20
8.16029179775235
 30
0.0
 11
17.60329760730422
 21
8.608899350611333
 31
0.0
  0
LINE
  5
36C
330
1F
100
AcDbEntity
  8
0
100
AcDbLine
 10
19.66911526617839
 20
10.6747170094855
 30
0.0
 11
20.91930460302381
 21
11.92490634633092
 31
0.0
  0
LINE
  5
36D
330
1F
100
AcDbEntity
  8
0
100
AcDbLine
 10
23.73575137039452
 20
14.74135311370163
 30
0.0
 11
24.19668427670234
 21
15.20228602000944
 31
0.0
  0
LINE
  5
36E
330
1F
100
AcDbEntity
  8
0
100
AcDbLine
 10
17.11199410690953
 20
8.192549169022415
 30
0.0
 11
17.56057359302395
 21
8.641128655136837
 31
0.0
  0
LINE
  5
36F
330
1F
100
AcDbEntity
  8
0
100
AcDbLine
 10
19.66911526617839
 20
10.74967032829127
 30
0.0
 11
20.91930460302381
 21
11.99985966513669
 31
0.0
  0
LINE
  5
370
330
1F
100
AcDbEntity
  8
0
100
AcDbLine
 10
23.70392321720283
 20
14.78447827931571
 30
0.0
 11
24.16373220619283
 21
15.24428726830571
 31
0.0
  0
LINE
  5
371
330
1F
100
AcDbEntity
  8
0
100
AcDbLine
 10
17.06974790549224
 20
8.225256286410893
 30
0.0
 11
17.5183225792795
 21
8.673830960198156
 31
0.0
  0
LINE
  5
372
330
1F
100
AcDbEntity
  8
0
100
AcDbLine
 10
19.66911526617839
 20
10.82462364709704
 30
0.0
 11
20.91930460302381
 21
12.07481298394246
 31
0.0
  0
LINE
  5
373
330
1F
100
AcDbEntity
  8
0
100
AcDbLine
 10
23.67166410944144
 20
14.82717249036009
 30
0.0
 11
24.13037509556889
 21
15.28588347648755
 31
0.0
  0
LINE
  5
374
330
1F
100
AcDbEntity
  8
0
100
AcDbLine
 10
17.02789355522827
 20
8.258355254952699
 30
0.0
 11
17.47658159741325
 21
8.707043297137679
 31
0.0
  0
LINE
  5
375
330
1F
100
AcDbEntity
  8
0
100
AcDbLine
 10
19.66911526617839
 20
10.89957696590282
 30
0.0
 11
20.91930460302381
 21
12.14976630274824
 31
0.0
  0
LINE
  5
376
330
1F
100
AcDbEntity
  8
0
100
AcDbLine
 10
23.63900485931873
 20
14.86946655904316
 30
0.0
 11
24.09666088031975
 21
15.32712258004418
 31
0.0
  0
LINE
  5
377
330
1F
100
AcDbEntity
  8
0
100
AcDbLine
 10
16.98644024484078
 20
8.291855263370978
 30
0.0
 11
17.43535087688037
 21
8.74076589541057
 31
0.0
  0
LINE
  5
378
330
1F
100
AcDbEntity
  8
0
100
AcDbLine
 10
19.66911526617839
 20
10.97453028470859
 30
0.0
 11
20.91930460302381
 21
12.22471962155401
 31
0.0
  0
LINE
  5
379
330
1F
100
AcDbEntity
  8
0
100
AcDbLine
 10
23.6059565302247
 20
14.9113715487549
 30
0.0
 11
24.0626377272465
 21
15.3680527457767
 31
0.0
  0
LINE
  5
37A
330
1F
100
AcDbEntity
  8
0
100
AcDbLine
 10
16.94534395678635
 20
8.32571229412232
 30
0.0
 11
17.39462312736166
 21
8.774991464697639
 31
0.0
  0
LINE
  5
37B
330
1F
100
AcDbEntity
  8
0
100
AcDbLine
 10
19.66911526617839
 20
11.04948360351436
 30
0.0
 11
20.91930460302381
 21
12.29967294035978
 31
0.0
  0
LINE
  5
37C
330
1F
100
AcDbEntity
  8
0
100
AcDbLine
 10
23.57252744376072
 20
14.9528957810967
 30
0.0
 11
24.02816923481653
 21
15.40853757215251
 31
0.0
  0
LINE
  5
37D
330
1F
100
AcDbEntity
  8
0
100
AcDbLine
 10
16.90472518240135
 20
8.360046838543106
 30
0.0
 11
17.35437790319953
 21
8.809699559341281
 31
0.0
  0
LINE
  5
37E
330
1F
100
AcDbEntity
  8
0
100
AcDbLine
 10
19.66911526617839
 20
11.12443692232014
 30
0.0
 11
20.9193046030238
 21
12.37462625916555
 31
0.0
  0
LINE
  5
37F
330
1F
100
AcDbEntity
  8
0
100
AcDbLine
 10
23.53875475579133
 20
14.99407641193308
 30
0.0
 11
23.99331495002539
 21
15.44863660616714
 31
0.0
  0
LINE
  5
380
330
1F
100
AcDbEntity
  8
0
100
AcDbLine
 10
16.86454630205656
 20
8.394821277004088
 30
0.0
 11
17.31456682020646
 21
8.844841795153986
 31
0.0
  0
LINE
  5
381
330
1F
100
AcDbEntity
  8
0
100
AcDbLine
 10
19.66911526617839
 20
11.19939024112591
 30
0.0
 11
20.91930460302381
 21
12.44957957797133
 31
0.0
  0
LINE
  5
382
330
1F
100
AcDbEntity
  8
0
100
AcDbLine
 10
23.50455483713863
 20
15.03482981208616
 30
0.0
 11
23.9580535664308
 21
15.48832854137833
 31
0.0
  0
LINE
  5
383
330
1F
100
AcDbEntity
  8
0
100
AcDbLine
 10
16.82479274293793
 20
8.430021036691233
 30
0.0
 11
17.27512867407259
 21
8.880356967825888
 31
0.0
  0
LINE
  5
384
330
1F
100
AcDbEntity
  8
0
100
AcDbLine
 10
19.66911526617839
 20
11.27434355993169
 30
0.0
 11
20.91930460302381
 21
12.5245328967771
 31
0.0
  0
LINE
  5
385
330
1F
100
AcDbEntity
  8
0
100
AcDbLine
 10
23.46992514506129
 20
15.07515343881459
 30
0.0
 11
23.92236276632377
 21
15.52759106007706
 31
0.0
  0
LINE
  5
386
330
1F
100
AcDbEntity
  8
0
100
AcDbLine
 10
16.78549710426068
 20
8.465678716819754
 30
0.0
 11
17.2360026434607
 21
8.916184256019774
 31
0.0
  0
LINE
  5
387
330
1F
100
AcDbEntity
  8
0
100
AcDbLine
 10
19.66911526617839
 20
11.34929687873746
 30
0.0
 11
20.9193046030238
 21
12.59948621558287
 31
0.0
  0
LINE
  5
388
330
1F
100
AcDbEntity
  8
0
100
AcDbLine
 10
23.43474807885996
 20
15.11492969141903
 30
0.0
 11
23.88627794995891
 21
15.56645956251797
 31
0.0
  0
LINE
  5
389
330
1F
100
AcDbEntity
  8
0
100
AcDbLine
 10
16.74661566838541
 20
8.50175059975025
 30
0.0
 11
17.19712822804789
 21
8.95226315941274
 31
0.0
  0
LINE
  5
38A
330
1F
100
AcDbEntity
  8
0
100
AcDbLine
 10
19.66911526617839
 20
11.42425019754323
 30
0.0
 11
20.9193046030238
 21
12.67443953438865
 31
0.0
  0
LINE
  5
38B
330
1F
100
AcDbEntity
  8
0
100
AcDbLine
 10
23.39902670584548
 20
15.15416163721032
 30
0.0
 11
23.84979561422583
 21
15.60493054559067
 31
0.0
  0
LINE
  5
38C
330
1F
100
AcDbEntity
  8
0
100
AcDbLine
 10
16.70813601767307
 20
8.538224267843683
 30
0.0
 11
17.15844518725294
 21
8.98853343742356
 31
0.0
  0
LINE
  5
38D
330
1F
100
AcDbEntity
  8
0
100
AcDbLine
 10
19.66911526617839
 20
11.49920351634901
 30
0.0
 11
20.9193046030238
 21
12.74939285319442
 31
0.0
  0
LINE
  5
38E
330
1F
100
AcDbEntity
  8
0
100
AcDbLine
 10
23.36275983020848
 20
15.1928480803791
 30
0.0
 11
23.81306031382292
 21
15.64314856399354
 31
0.0
  0
LINE
  5
38F
330
1F
100
AcDbEntity
  8
0
100
AcDbLine
 10
16.66991476179908
 20
8.574956330775478
 30
0.0
 11
17.1198934795183
 21
9.024935048494692
 31
0.0
  0
LINE
  5
390
330
1F
100
AcDbEntity
  8
0
100
AcDbLine
 10
19.66911526617839
 20
11.57415683515478
 30
0.0
 11
20.9193046030238
 21
12.8243461720002
 31
0.0
  0
LINE
  5
391
330
1F
100
AcDbEntity
  8
0
100
AcDbLine
 10
23.32602175019871
 20
15.2310633191751
 30
0.0
 11
23.77612115285772
 21
15.68116272183411
 31
0.0
  0
LINE
  5
392
330
1F
100
AcDbEntity
  8
0
100
AcDbLine
 10
16.63190729331015
 20
8.611902181092317
 30
0.0
 11
17.08141320201774
 21
9.061408089799901
 31
0.0
  0
LINE
  5
393
330
1F
100
AcDbEntity
  8
0
100
AcDbLine
 10
19.66911526617839
 20
11.64911015396055
 30
0.0
 11
20.9193046030238
 21
12.89929949080597
 31
0.0
  0
LINE
  5
394
330
1F
100
AcDbEntity
  8
0
100
AcDbLine
 10
23.28900717001818
 20
15.26900205780034
 30
0.0
 11
23.73908405616449
 21
15.71907894394666
 31
0.0
  0
LINE
  5
395
330
1F
100
AcDbEntity
  8
0
100
AcDbLine
 10
16.59398875229722
 20
8.648936958885155
 30
0.0
 11
17.04423259313887
 21
9.099180799726804
 31
0.0
  0
LINE
  5
396
330
1F
100
AcDbEntity
  8
0
100
AcDbLine
 10
19.66911526617839
 20
11.72406347276633
 30
0.0
 11
20.9193046030238
 21
12.97425280961174
 31
0.0
  0
LINE
  5
397
330
1F
100
AcDbEntity
  8
0
100
AcDbLine
 10
23.2518368454994
 20
15.30678505208734
 30
0.0
 11
23.70136651356987
 21
15.75631472015781
 31
0.0
  0
LINE
  5
398
330
1F
100
AcDbEntity
  8
0
100
AcDbLine
 10
16.55688431022489
 20
8.686785835618602
 30
0.0
 11
17.00739486544659
 21
9.137296390840302
 31
0.0
  0
LINE
  5
399
330
1F
100
AcDbEntity
  8
0
100
AcDbLine
 10
19.66911526617839
 20
11.7990167915721
 30
0.0
 11
20.9193046030238
 21
13.04920612841751
 31
0.0
  0
LINE
  5
39A
330
1F
100
AcDbEntity
  8
0
100
AcDbLine
 10
23.21384131565943
 20
15.34374284105314
 30
0.0
 11
23.66342195030829
 21
15.793323475702
 31
0.0
  0
LINE
  5
39B
330
1F
100
AcDbEntity
  8
0
100
AcDbLine
 10
16.51992702858559
 20
8.724781872785075
 30
0.0
 11
16.97081770988015
 21
9.175672554079636
 31
0.0
  0
LINE
  5
39C
330
1F
100
AcDbEntity
  8
0
100
AcDbLine
 10
19.66911526617839
 20
11.87397011037787
 30
0.0
 11
20.9193046030238
 21
13.12415944722329
 31
0.0
  0
LINE
  5
39D
330
1F
100
AcDbEntity
  8
0
100
AcDbLine
 10
23.17569804858251
 20
15.38055289278199
 30
0.0
 11
23.62529460333191
 21
15.83014944753139
 31
0.0
  0
LINE
  5
39E
330
1F
100
AcDbEntity
  8
0
100
AcDbLine
 10
16.48314828957333
 20
8.762956452578589
 30
0.0
 11
16.93463865146767
 21
9.214446814472925
 31
0.0
  0
LINE
  5
39F
330
1F
100
AcDbEntity
  8
0
100
AcDbLine
 10
19.66911526617839
 20
11.94892342918365
 30
0.0
 11
20.9193046030238
 21
13.19911276602906
 31
0.0
  0
LINE
  5
3A0
330
1F
100
AcDbEntity
  8
0
100
AcDbLine
 10
23.13734188261663
 20
15.41715004562189
 30
0.0
 11
23.58684553428004
 21
15.8666536972853
 31
0.0
  0
LINE
  5
3A1
330
1F
100
AcDbEntity
  8
0
100
AcDbLine
 10
16.4466380822398
 20
8.801399564050838
 30
0.0
 11
16.89895719701242
 21
9.253718678823454
 31
0.0
  0
LINE
  5
3A2
330
1F
100
AcDbEntity
  8
0
100
AcDbLine
 10
19.66911526617839
 20
12.02387674798942
 30
0.0
 11
20.9193046030238
 21
13.27406608483483
 31
0.0
  0
LINE
  5
3A3
330
1F
100
AcDbEntity
  8
0
100
AcDbLine
 10
23.09865520797096
 20
15.45341668978199
 30
0.0
 11
23.54803026257919
 21
15.90279174439022
 31
0.0
  0
LINE
  5
3A4
330
1F
100
AcDbEntity
  8
0
100
AcDbLine
 10
16.41047233987265
 20
8.84018714048946
 30
0.0
 11
16.86382150571844
 21
9.293536306335247
 31
0.0
  0
LINE
  5
3A5
330
1F
100
AcDbEntity
  8
0
100
AcDbLine
 10
19.66911526617839
 20
12.09883006679519
 30
0.0
 11
20.9193046030238
 21
13.34901940364061
 31
0.0
  0
LINE
  5
3A6
330
1F
100
AcDbEntity
  8
0
100
AcDbLine
 10
23.05956562564942
 20
15.48928042626622
 30
0.0
 11
23.50867784458149
 21
15.9383926451983
 31
0.0
  0
LINE
  5
3A7
330
1F
100
AcDbEntity
  8
0
100
AcDbLine
 10
16.37475795201011
 20
8.879426071432693
 30
0.0
 11
16.8291909129329
 21
9.333859032355484
 31
0.0
  0
LINE
  5
3A8
330
1F
100
AcDbEntity
  8
0
100
AcDbLine
 10
19.66911526617838
 20
12.17378338560096
 30
0.0
 11
20.9193046030238
 21
13.42397272244638
 31
0.0
  0
LINE
  5
3A9
330
1F
100
AcDbEntity
  8
0
100
AcDbLine
 10
23.01999241800924
 20
15.52466053743182
 30
0.0
 11
23.46889317699407
 21
15.97356129641665
 31
0.0
  0
LINE
  5
3AA
330
1F
100
AcDbEntity
  8
0
100
AcDbLine
 10
16.33945624727978
 20
8.919077685508139
 30
0.0
 11
16.79498994909316
 21
9.374611387321519
 31
0.0
  0
LINE
  5
3AB
330
1F
100
AcDbEntity
  8
0
100
AcDbLine
 10
19.66911526617839
 20
12.24873670440674
 30
0.0
 11
20.9193046030238
 21
13.49892604125215
 31
0.0
  0
LINE
  5
3AC
330
1F
100
AcDbEntity
  8
0
100
AcDbLine
 10
22.97994948058622
 20
15.55957091881457
 30
0.0
 11
23.42863367809936
 21
16.00825511632771
 31
0.0
  0
LINE
  5
3AD
330
1F
100
AcDbEntity
  8
0
100
AcDbLine
 10
16.30463335025519
 20
8.95920810728932
 30
0.0
 11
16.76122807435721
 21
9.415802831391339
 31
0.0
  0
LINE
  5
3AE
330
1F
100
AcDbEntity
  8
0
100
AcDbLine
 10
19.66911526617839
 20
12.32369002321251
 30
0.0
 11
20.9193046030238
 21
13.57387936005793
 31
0.0
  0
LINE
  5
3AF
330
1F
100
AcDbEntity
  8
0
100
AcDbLine
 10
22.93945549430063
 20
15.59403025133476
 30
0.0
 11
23.38799811208988
 21
16.042572869124
 31
0.0
  0
LINE
  5
3B0
330
1F
100
AcDbEntity
  8
0
100
AcDbLine
 10
16.27021584218483
 20
8.999743918024732
 30
0.0
 11
16.72783158568784
 21
9.45735966152774
 31
0.0
  0
LINE
  5
3B1
330
1F
100
AcDbEntity
  8
0
100
AcDbLine
 10
19.66911526617839
 20
12.39864334201829
 30
0.0
 11
20.9193046030238
 21
13.6488326788637
 31
0.0
  0
LINE
  5
3B2
330
1F
100
AcDbEntity
  8
0
100
AcDbLine
 10
22.8984323696271
 20
15.627960445467
 30
0.0
 11
23.34695681829609
 21
16.07648489413599
 31
0.0
  0
LINE
  5
3B3
330
1F
100
AcDbEntity
  8
0
100
AcDbLine
 10
16.23632436419263
 20
9.040805758838307
 30
0.0
 11
16.69486487418549
 21
9.499346268831165
 31
0.0
  0
LINE
  5
3B4
330
1F
100
AcDbEntity
  8
0
100
AcDbLine
 10
19.66911526617839
 20
12.47359666082406
 30
0.0
 11
20.9193046030238
 21
13.72378599766947
 31
0.0
  0
LINE
  5
3B5
330
1F
100
AcDbEntity
  8
0
100
AcDbLine
 10
22.8570023544626
 20
15.66148374910828
 30
0.0
 11
23.30562490718096
 21
16.11010630182663
 31
0.0
  0
LINE
  5
3B6
330
1F
100
AcDbEntity
  8
0
100
AcDbLine
 10
16.20278378626844
 20
9.082218499719893
 30
0.0
 11
16.66236313635334
 21
9.541797849804786
 31
0.0
  0
LINE
  5
3B7
330
1F
100
AcDbEntity
  8
0
100
AcDbLine
 10
19.66911526617839
 20
12.54854997962983
 30
0.0
 11
20.9193046030238
 21
13.79873931647525
 31
0.0
  0
LINE
  5
3B8
330
1F
100
AcDbEntity
  8
0
100
AcDbLine
 10
22.81513123566045
 20
15.6945659491119
 30
0.0
 11
23.26389615486795
 21
16.1433308683194
 31
0.0
  0
LINE
  5
3B9
330
1F
100
AcDbEntity
  8
0
100
AcDbLine
 10
16.16964239497938
 20
9.124030427236606
 30
0.0
 11
16.63035740825006
 21
9.584745440507279
 31
0.0
  0
LINE
  5
3BA
330
1F
100
AcDbEntity
  8
0
100
AcDbLine
 10
19.66911526617839
 20
12.62350329843561
 30
0.0
 11
20.9193046030238
 21
13.87369263528102
 31
0.0
  0
LINE
  5
3BB
330
1F
100
AcDbEntity
  8
0
100
AcDbLine
 10
22.77283812680499
 20
15.72722615906221
 30
0.0
 11
23.22177808515918
 21
16.1761661174164
 31
0.0
  0
LINE
  5
3BC
330
1F
100
AcDbEntity
  8
0
100
AcDbLine
 10
16.1369290178115
 20
9.166270368874493
 30
0.0
 11
16.59885888115515
 21
9.628200232218147
 31
0.0
  0
LINE
  5
3BD
330
1F
100
AcDbEntity
  8
0
100
AcDbLine
 10
19.66911526617838
 20
12.69845661724138
 30
0.0
 11
20.9193046030238
 21
13.94864595408679
 31
0.0
  0
LINE
  5
3BE
330
1F
100
AcDbEntity
  8
0
100
AcDbLine
 10
22.73013911206143
 20
15.75948046312443
 30
0.0
 11
23.1792773935469
 21
16.20861874460989
 31
0.0
  0
LINE
  5
3BF
330
1F
100
AcDbEntity
  8
0
100
AcDbLine
 10
16.10454924116585
 20
9.208843911034617
 30
0.0
 11
16.56785940943014
 21
9.672154079298911
 31
0.0
  0
LINE
  5
3C0
330
1F
100
AcDbEntity
  8
0
100
AcDbLine
 10
19.66911526617839
 20
12.77340993604716
 30
0.0
 11
20.9193046030238
 21
14.02359927289257
 31
0.0
  0
LINE
  5
3C1
330
1F
100
AcDbEntity
  8
0
100
AcDbLine
 10
22.68702778809947
 20
15.79132245796824
 30
0.0
 11
23.13638114180026
 21
16.24067581166903
 31
0.0
  0
LINE
  5
3C2
330
1F
100
AcDbEntity
  8
0
100
AcDbLine
 10
16.07247387031638
 20
9.25172185899092
 30
0.0
 11
16.53734772216209
 21
9.716595710836636
 31
0.0
  0
LINE
  5
3C3
330
1F
100
AcDbEntity
  8
0
100
AcDbLine
 10
19.66911526617839
 20
12.84836325485293
 30
0.0
 11
20.9193046030238
 21
14.09855259169834
 31
0.0
  0
LINE
  5
3C4
330
1F
100
AcDbEntity
  8
0
100
AcDbLine
 10
22.64347409098317
 20
15.82272207965771
 30
0.0
 11
23.09307320793764
 21
16.27232119661219
 31
0.0
  0
LINE
  5
3C5
330
1F
100
AcDbEntity
  8
0
100
AcDbLine
 10
16.04071506298853
 20
9.294916370468846
 30
0.0
 11
16.50731268462317
 21
9.761513992103483
 31
0.0
  0
LINE
  5
3C6
330
1F
100
AcDbEntity
  8
0
100
AcDbLine
 10
19.66911526617838
 20
12.9233165736587
 30
0.0
 11
20.9193046030238
 21
14.17350591050412
 31
0.0
  0
LINE
  5
3C7
330
1F
100
AcDbEntity
  8
0
100
AcDbLine
 10
22.59944027649913
 20
15.85364158397945
 30
0.0
 11
23.0493487613856
 21
16.30355006886592
 31
0.0
  0
LINE
  5
3C8
330
1F
100
AcDbEntity
  8
0
100
AcDbLine
 10
16.00929320650861
 20
9.3384478327947
 30
0.0
 11
16.47775971737193
 21
9.80691434365802
 31
0.0
  0
LINE
  5
3C9
330
1F
100
AcDbEntity
  8
0
100
AcDbLine
 10
19.66911526617839
 20
12.99826989246448
 30
0.0
 11
20.9193046030238
 21
14.24845922930989
 31
0.0
  0
LINE
  5
3CA
330
1F
100
AcDbEntity
  8
0
100
AcDbLine
 10
22.55489188439112
 20
15.88404651067721
 30
0.0
 11
23.00520245114173
 21
16.33435707742781
 31
0.0
  0
LINE
  5
3CB
330
1F
100
AcDbEntity
  8
0
100
AcDbLine
 10
15.97823409482837
 20
9.382342039920237
 30
0.0
 11
16.44869858959483
 21
9.852806534686698
 31
0.0
  0
LINE
  5
3CC
330
1F
100
AcDbEntity
  8
0
100
AcDbLine
 10
19.66911526617839
 20
13.07322321127025
 30
0.0
 11
20.9193046030238
 21
14.32341254811566
 31
0.0
  0
LINE
  5
3CD
330
1F
100
AcDbEntity
  8
0
100
AcDbLine
 10
22.50980903312973
 20
15.91391697822159
 30
0.0
 11
22.96059699864129
 21
16.36470494373315
 31
0.0
  0
LINE
  5
3CE
330
1F
100
AcDbEntity
  8
0
100
AcDbLine
 10
15.94755727656993
 20
9.426618540467569
 30
0.0
 11
16.42014268844217
 21
9.899203952339802
 31
0.0
  0
LINE
  5
3CF
330
1F
100
AcDbEntity
  8
0
100
AcDbLine
 10
19.66911526617839
 20
13.14817653007603
 30
0.0
 11
20.9193046030238
 21
14.39836586692143
 31
0.0
  0
LINE
  5
3D0
330
1F
100
AcDbEntity
  8
0
100
AcDbLine
 10
22.46420295905849
 20
15.94326422295613
 30
0.0
 11
22.91552079059173
 21
16.39458205448937
 31
0.0
  0
LINE
  5
3D1
330
1F
100
AcDbEntity
  8
0
100
AcDbLine
 10
15.91734606949909
 20
9.471360652202506
 30
0.0
 11
16.39210753842113
 21
9.946122121124544
 31
0.0
  0
LINE
  5
3D2
330
1F
100
AcDbEntity
  8
0
100
AcDbLine
 10
19.66911526617839
 20
13.2231298488818
 30
0.0
 11
20.9193046030238
 21
14.47331918572721
 31
0.0
  0
LINE
  5
3D3
330
1F
100
AcDbEntity
  8
0
100
AcDbLine
 10
22.41808914363063
 20
15.97210372633404
 30
0.0
 11
22.87001290221787
 21
16.42402748492128
 31
0.0
  0
LINE
  5
3D4
330
1F
100
AcDbEntity
  8
0
100
AcDbLine
 10
15.88758918689759
 20
9.516557088406769
 30
0.0
 11
16.36461368029317
 21
9.993581581802353
 31
0.0
  0
LINE
  5
3D5
330
1F
100
AcDbEntity
  8
0
100
AcDbLine
 10
19.66911526617839
 20
13.29808316768757
 30
0.0
 11
20.9193046030238
 21
14.54827250453298
 31
0.0
  0
LINE
  5
3D6
330
1F
100
AcDbEntity
  8
0
100
AcDbLine
 10
22.37148238646096
 20
16.00045028797015
 30
0.0
 11
22.82407648913821
 21
16.45304439064739
 31
0.0
  0
LINE
  5
3D7
330
1F
100
AcDbEntity
  8
0
100
AcDbLine
 10
15.85831669388705
 20
9.56223791420201
 30
0.0
 11
16.33768670667879
 21
10.04160792699374
 31
0.0
  0
LINE
  5
3D8
330
1F
100
AcDbEntity
  8
0
100
AcDbLine
 10
19.66911526617838
 20
13.37303648649334
 30
0.0
 11
20.9193046030238
 21
14.62322582333875
 31
0.0
  0
LINE
  5
3D9
330
1F
100
AcDbEntity
  8
0
100
AcDbLine
 10
22.32438098089635
 20
16.02830220121131
 30
0.0
 11
22.77771460366155
 21
16.48163582397651
 31
0.0
  0
LINE
  5
3DA
330
1F
100
AcDbEntity
  8
0
100
AcDbLine
 10
15.82955963166519
 20
9.608434170785925
 30
0.0
 11
16.31135380123221
 21
10.09022834035294
 31
0.0
  0
LINE
  5
3DB
330
1F
100
AcDbEntity
  8
0
100
AcDbLine
 10
19.66911526617839
 20
13.44798980529912
 30
0.0
 11
20.91930460302379
 21
14.69817914214453
 31
0.0
  0
LINE
  5
3DC
330
1F
100
AcDbEntity
  8
0
100
AcDbLine
 10
22.27677236674997
 20
16.0556469058707
 30
0.0
 11
22.73092837715541
 21
16.50980291627615
 31
0.0
  0
LINE
  5
3DD
330
1F
100
AcDbEntity
  8
0
100
AcDbLine
 10
15.80134208613996
 20
9.655169944066461
 30
0.0
 11
16.28563345634899
 21
10.1394613142755
 31
0.0
  0
LINE
  5
3DE
330
1F
100
AcDbEntity
  8
0
100
AcDbLine
 10
19.66911526617839
 20
13.52294312410489
 30
0.0
 11
20.91930460302379
 21
14.7731324609503
 31
0.0
  0
LINE
  5
3DF
330
1F
100
AcDbEntity
  8
0
100
AcDbLine
 10
22.2286382349501
 20
16.0824660928766
 30
0.0
 11
22.68371095561017
 21
16.53753881353667
 31
0.0
  0
LINE
  5
3E0
330
1F
100
AcDbEntity
  8
0
100
AcDbLine
 10
15.77365940645674
 20
9.702440583189016
 30
0.0
 11
16.26050692250893
 21
10.18928809924121
 31
0.0
  0
LINE
  5
3E1
330
1F
100
AcDbEntity
  8
0
100
AcDbLine
 10
19.66911526617839
 20
13.59789644291067
 30
0.0
 11
20.91930460302379
 21
14.84808577975607
 31
0.0
  0
LINE
  5
3E2
330
1F
100
AcDbEntity
  8
0
100
AcDbLine
 10
22.17996044669804
 20
16.10874162343032
 30
0.0
 11
22.6360465290476
 21
16.56482770577988
 31
0.0
  0
LINE
  5
3E3
330
1F
100
AcDbEntity
  8
0
100
AcDbLine
 10
15.74648034651266
 20
9.750214842050715
 30
0.0
 11
16.23596464415075
 21
10.2396991396888
 31
0.0
  0
LINE
  5
3E4
330
1F
100
AcDbEntity
  8
0
100
AcDbLine
 10
19.66911526617839
 20
13.67284976171644
 30
0.0
 11
20.91930460302379
 21
14.92303909856185
 31
0.0
  0
LINE
  5
3E5
330
1F
100
AcDbEntity
  8
0
100
AcDbLine
 10
22.13073083283163
 20
16.13446532836968
 30
0.0
 11
22.58791577947241
 21
16.59165027501047
 31
0.0
  0
LINE
  5
3E6
330
1F
100
AcDbEntity
  8
0
100
AcDbLine
 10
15.71981138858185
 20
9.798499202925674
 30
0.0
 11
16.21193885231123
 21
10.29062666665506
 31
0.0
  0
LINE
  5
3E7
330
1F
100
AcDbEntity
  8
0
100
AcDbLine
 10
19.66911526617839
 20
13.74780308052221
 30
0.0
 11
20.91930460302379
 21
14.99799241736762
 31
0.0
  0
LINE
  5
3E8
330
1F
100
AcDbEntity
  8
0
100
AcDbLine
 10
22.08094717885643
 20
16.15963499320025
 30
0.0
 11
22.5392984991869
 21
16.61798631353073
 31
0.0
  0
LINE
  5
3E9
330
1F
100
AcDbEntity
  8
0
100
AcDbLine
 10
15.69357612381206
 20
9.847217256961661
 30
0.0
 11
16.18841515552612
 21
10.34205628867572
 31
0.0
  0
LINE
  5
3EA
330
1F
100
AcDbEntity
  8
0
100
AcDbLine
 10
19.66911526617839
 20
13.82275639932799
 30
0.0
 11
20.91930460302379
 21
15.07294573617339
 31
0.0
  0
LINE
  5
3EB
330
1F
100
AcDbEntity
  8
0
100
AcDbLine
 10
22.03060895006123
 20
16.18425008321083
 30
0.0
 11
22.49012753074038
 21
16.64376866388998
 31
0.0
  0
LINE
  5
3EC
330
1F
100
AcDbEntity
  8
0
100
AcDbLine
 10
15.66772060911653
 20
9.896315061071908
 30
0.0
 11
16.16544781636436
 21
10.39404226831973
 31
0.0
  0
LINE
  5
3ED
330
1F
100
AcDbEntity
  8
0
100
AcDbLine
 10
19.66911526617839
 20
13.89770971813376
 30
0.0
 11
20.91930460302379
 21
15.14789905497917
 31
0.0
  0
LINE
  5
3EE
330
1F
100
AcDbEntity
  8
0
100
AcDbLine
 10
21.97971460223315
 20
16.20830905418852
 30
0.0
 11
22.44045774838269
 21
16.66905220033807
 31
0.0
  0
LINE
  5
3EF
330
1F
100
AcDbEntity
  8
0
100
AcDbLine
 10
15.642295790217
 20
9.945843560978142
 30
0.0
 11
16.14310802807533
 21
10.44665579883648
 31
0.0
  0
LINE
  5
3F0
330
1F
100
AcDbEntity
  8
0
100
AcDbLine
 10
19.66911526617839
 20
13.97266303693953
 30
0.0
 11
20.91930460302379
 21
15.22285237378494
 31
0.0
  0
LINE
  5
3F1
330
1F
100
AcDbEntity
  8
0
100
AcDbLine
 10
21.92824699224454
 20
16.23179476300569
 30
0.0
 11
22.3903038272831
 21
16.69385159804425
 31
0.0
  0
LINE
  5
3F2
330
1F
100
AcDbEntity
  8
0
100
AcDbLine
 10
15.61732983551052
 20
9.99583092507744
 30
0.0
 11
16.12146561316267
 21
10.49996670272959
 31
0.0
  0
LINE
  5
3F3
330
1F
100
AcDbEntity
  8
0
100
AcDbLine
 10
19.66911526617839
 20
14.04761635574531
 30
0.0
 11
20.91930460302379
 21
15.29780569259071
 31
0.0
  0
LINE
  5
3F4
330
1F
100
AcDbEntity
  8
0
100
AcDbLine
 10
21.87618320067335
 20
16.25468429024027
 30
0.0
 11
22.3396775675392
 21
16.71817865710612
 31
0.0
  0
LINE
  5
3F5
330
1F
100
AcDbEntity
  8
0
100
AcDbLine
 10
15.59287011051296
 20
10.04632451888565
 30
0.0
 11
16.10054918076436
 21
10.55400358913706
 31
0.0
  0
LINE
  5
3F6
330
1F
100
AcDbEntity
  8
0
100
AcDbLine
 10
19.63240920340904
 20
14.08586361178173
 30
0.0
 11
20.91930460302379
 21
15.37275901139649
 31
0.0
  0
LINE
  5
3F7
330
1F
100
AcDbEntity
  8
0
100
AcDbLine
 10
21.82348066449841
 20
16.27693507287111
 30
0.0
 11
22.28858502014821
 21
16.7420394285209
 31
0.0
  0
LINE
  5
3F8
330
1F
100
AcDbEntity
  8
0
100
AcDbLine
 10
15.56894415297859
 20
10.09735188015705
 30
0.0
 11
16.08034323757758
 21
10.60875096475605
 31
0.0
  0
LINE
  5
3F9
330
1F
100
AcDbEntity
  8
0
100
AcDbLine
 10
19.55745588460326
 20
14.08586361178173
 30
0.0
 11
20.91930460302379
 21
15.44771233020226
 31
0.0
  0
LINE
  5
3FA
330
1F
100
AcDbEntity
  8
0
100
AcDbLine
 10
21.77009572081393
 20
16.2985034479924
 30
0.0
 11
22.2370132683102
 21
16.76542099548867
 31
0.0
  0
LINE
  5
3FB
330
1F
100
AcDbEntity
  8
0
100
AcDbLine
 10
15.54553380560367
 20
10.14889485158791
 30
0.0
 11
16.06082101320136
 21
10.6641820591856
 31
0.0
  0
LINE
  5
3FC
330
1F
100
AcDbEntity
  8
0
100
AcDbLine
 10
19.48250256579749
 20
14.08586361178173
 30
0.0
 11
20.91930460302379
 21
15.52266564900803
 31
0.0
  0
LINE
  5
3FD
330
1F
100
AcDbEntity
  8
0
100
AcDbLine
 10
21.71603805049346
 20
16.3193990964777
 30
0.0
 11
22.18493410495649
 21
16.78829515094073
 31
0.0
  0
LINE
  5
3FE
330
1F
100
AcDbEntity
  8
0
100
AcDbLine
 10
15.52263613991937
 20
10.20095050470938
 30
0.0
 11
16.04195647552223
 21
10.72027084031224
 31
0.0
  0
LINE
  5
3FF
330
1F
100
AcDbEntity
  8
0
100
AcDbLine
 10
19.40754924699171
 20
14.08586361178173
 30
0.0
 11
20.91930460302379
 21
15.59761896781381
 31
0.0
  0
LINE
  5
400
330
1F
100
AcDbEntity
  8
0
100
AcDbLine
 10
21.6612882645141
 20
16.33960262930411
 30
0.0
 11
22.13231529001553
 21
16.81062965480555
 31
0.0
  0
LINE
  5
401
330
1F
100
AcDbEntity
  8
0
100
AcDbLine
 10
15.50024789004583
 20
10.25351557364162
 30
0.0
 11
16.0237505740656
 21
10.77701825766139
 31
0.0
  0
LINE
  5
402
330
1F
100
AcDbEntity
  8
0
100
AcDbLine
 10
19.33259592818594
 20
14.08586361178173
 30
0.0
 11
20.91930460302379
 21
15.67257228661958
 31
0.0
  0
LINE
  5
403
330
1F
100
AcDbEntity
  8
0
100
AcDbLine
 10
21.60582847808719
 20
16.35909616168298
 30
0.0
 11
22.0791247257003
 21
16.83239240929609
 31
0.0
  0
LINE
  5
404
330
1F
100
AcDbEntity
  8
0
100
AcDbLine
 10
15.47832966325373
 20
10.3065506656553
 30
0.0
 11
16.00623957800508
 21
10.83446058040665
 31
0.0
  0
LINE
  5
405
330
1F
100
AcDbEntity
  8
0
100
AcDbLine
 10
19.25764260938017
 20
14.08586361178173
 30
0.0
 11
20.91930460302379
 21
15.74752560542535
 31
0.0
  0
LINE
  5
406
330
1F
100
AcDbEntity
  8
0
100
AcDbLine
 10
21.54966509303023
 20
16.37788609543179
 30
0.0
 11
22.02534255976686
 21
16.85356356216842
 31
0.0
  0
LINE
  5
407
330
1F
100
AcDbEntity
  8
0
100
AcDbLine
 10
15.45698090065283
 20
10.36015522186017
 30
0.0
 11
15.9893665839165
 21
10.89254090512384
 31
0.0
  0
LINE
  5
408
330
1F
100
AcDbEntity
  8
0
100
AcDbLine
 10
19.18268929057439
 20
14.08586361178173
 30
0.0
 11
20.85111284604987
 21
15.75428716725721
 31
0.0
  0
LINE
  5
409
330
1F
100
AcDbEntity
  8
0
100
AcDbLine
 10
21.49283388107954
 20
16.39600820228688
 30
0.0
 11
21.97096145099492
 21
16.87413577220226
 31
0.0
  0
LINE
  5
40A
330
1F
100
AcDbEntity
  8
0
100
AcDbLine
 10
15.43624365618582
 20
10.41437129619893
 30
0.0
 11
15.97313152646834
 21
10.95125916648145
 31
0.0
  0
LINE
  5
40B
330
1F
100
AcDbEntity
  8
0
100
AcDbLine
 10
19.10773597176862
 20
14.08586361178173
 30
0.0
 11
20.7761595272441
 21
15.75428716725721
 31
0.0
  0
LINE
  5
40C
330
1F
100
AcDbEntity
  8
0
100
AcDbLine
 10
21.43537915625171
 20
16.41350679626482
 30
0.0
 11
21.91597847446771
 21
16.89410611448081
 31
0.0
  0
LINE
  5
40D
330
1F
100
AcDbEntity
  8
0
100
AcDbLine
 10
15.41611499196995
 20
10.46919595078883
 30
0.0
 11
15.95754678050872
 21
11.0106277393276
 31
0.0
  0
LINE
  5
40E
330
1F
100
AcDbEntity
  8
0
100
AcDbLine
 10
19.03278265296285
 20
14.08586361178173
 30
0.0
 11
20.70120620843833
 21
15.75428716725721
 31
0.0
  0
LINE
  5
40F
330
1F
100
AcDbEntity
  8
0
100
AcDbLine
 10
21.37733325712236
 20
16.43041421594124
 30
0.0
 11
21.86039132812749
 21
16.91347228694637
 31
0.0
  0
LINE
  5
410
330
1F
100
AcDbEntity
  8
0
100
AcDbLine
 10
15.39663274547533
 20
10.52466702309999
 30
0.0
 11
15.94262529167503
 21
11.07065956929969
 31
0.0
  0
LINE
  5
411
330
1F
100
AcDbEntity
  8
0
100
AcDbLine
 10
18.95782933415707
 20
14.08586361178173
 30
0.0
 11
20.62625288963255
 21
15.75428716725721
 31
0.0
  0
LINE
  5
412
330
1F
100
AcDbEntity
  8
0
100
AcDbLine
 10
21.31861662888904
 20
16.44665090651369
 30
0.0
 11
21.80420486285446
 21
16.93223914047912
 31
0.0
  0
LINE
  5
413
330
1F
100
AcDbEntity
  8
0
100
AcDbLine
 10
15.3777925853358
 20
10.58078018176623
 30
0.0
 11
15.92838695994735
 21
11.13137455637778
 31
0.0
  0
LINE
  5
414
330
1F
100
AcDbEntity
  8
0
100
AcDbLine
 10
18.8828760153513
 20
14.08586361178173
 30
0.0
 11
20.55129957082678
 21
15.75428716725721
 31
0.0
  0
LINE
  5
415
330
1F
100
AcDbEntity
  8
0
100
AcDbLine
 10
21.25917474859931
 20
16.46216234502974
 30
0.0
 11
21.74743932336404
 21
16.95042691979447
 31
0.0
  0
LINE
  5
416
330
1F
100
AcDbEntity
  8
0
100
AcDbLine
 10
15.35964229793179
 20
10.637583213168
 30
0.0
 11
15.91489960285656
 21
11.19284051809276
 31
0.0
  0
LINE
  5
417
330
1F
100
AcDbEntity
  8
0
100
AcDbLine
 10
18.80792269654552
 20
14.08586361178173
 30
0.0
 11
20.476346252021
 21
15.75428716725721
 31
0.0
  0
LINE
  5
418
330
1F
100
AcDbEntity
  8
0
100
AcDbLine
 10
21.1989605279431
 20
16.4769014431793
 30
0.0
 11
21.69012089330881
 21
16.96806180854501
 31
0.0
  0
LINE
  5
419
330
1F
100
AcDbEntity
  8
0
100
AcDbLine
 10
15.34204204270484
 20
10.69493627674682
 30
0.0
 11
15.90221506064793
 21
11.2551092946899
 31
0.0
  0
LINE
  5
41A
330
1F
100
AcDbEntity
  8
0
100
AcDbLine
 10
18.73296937773975
 20
14.08586361178173
 30
0.0
 11
20.40139293321523
 21
15.75428716725721
 31
0.0
  0
LINE
  5
41B
330
1F
100
AcDbEntity
  8
0
100
AcDbLine
 10
21.13794988252382
 20
16.49084411656579
 30
0.0
 11
21.63228148258565
 21
16.98517571662763
 31
0.0
  0
LINE
  5
41C
330
1F
100
AcDbEntity
  8
0
100
AcDbLine
 10
15.32497769316493
 20
10.75282524601268
 30
0.0
 11
15.89032776967735
 21
11.3181753225251
 31
0.0
  0
LINE
  5
41D
330
1F
100
AcDbEntity
  8
0
100
AcDbLine
 10
18.65801605893398
 20
14.08586361178173
 30
0.0
 11
20.32643961440946
 21
15.75428716725721
 31
0.0
  0
LINE
  5
41E
330
1F
100
AcDbEntity
  8
0
100
AcDbLine
 10
21.07618300149246
 20
16.50403055434021
 30
0.0
 11
21.57389575400122
 21
17.00174330684897
 31
0.0
  0
LINE
  5
41F
330
1F
100
AcDbEntity
  8
0
100
AcDbLine
 10
15.30843096634941
 20
10.81123183800293
 30
0.0
 11
15.87927119561745
 21
11.38207206727098
 31
0.0
  0
LINE
  5
420
330
1F
100
AcDbEntity
  8
0
100
AcDbLine
 10
18.58306274012821
 20
14.08586361178173
 30
0.0
 11
20.25148629560368
 21
15.75428716725721
 31
0.0
  0
LINE
  5
421
330
1F
100
AcDbEntity
  8
0
100
AcDbLine
 10
21.01371558102878
 20
16.51651645268231
 30
0.0
 11
21.51496409390511
 21
17.01776496555863
 31
0.0
  0
LINE
  5
422
330
1F
100
AcDbEntity
  8
0
100
AcDbLine
 10
15.29248187456193
 20
10.87023606502123
 30
0.0
 11
15.86907687483187
 21
11.44683106529117
 31
0.0
  0
LINE
  5
423
330
1F
100
AcDbEntity
  8
0
100
AcDbLine
 10
18.50810942132243
 20
14.08586361178173
 30
0.0
 11
19.66739753862609
 21
15.24515172908539
 31
0.0
  0
LINE
  5
424
330
1F
100
AcDbEntity
  8
0
100
AcDbLine
 10
19.91389606639087
 20
15.49165025685017
 30
0.0
 11
20.17653297679791
 21
15.75428716725721
 31
0.0
  0
LINE
  5
425
330
1F
100
AcDbEntity
  8
0
100
AcDbLine
 10
20.95051757663153
 20
16.52827176709083
 30
0.0
 11
21.4554296296781
 21
17.0331838201374
 31
0.0
  0
LINE
  5
426
330
1F
100
AcDbEntity
  8
0
100
AcDbLine
 10
15.27720036537793
 20
10.929907874643
 30
0.0
 11
15.85978291482475
 21
11.51249042408982
 31
0.0
  0
LINE
  5
427
330
1F
100
AcDbEntity
  8
0
100
AcDbLine
 10
18.43315610251666
 20
14.08586361178173
 30
0.0
 11
19.47168567021276
 21
15.12439317947783
 31
0.0
  0
LINE
  5
428
330
1F
100
AcDbEntity
  8
0
100
AcDbLine
 10
20.03507099486998
 20
15.68777850413505
 30
0.0
 11
20.10157965799214
 21
15.75428716725721
 31
0.0
  0
LINE
  5
429
330
1F
100
AcDbEntity
  8
0
100
AcDbLine
 10
20.88657273379237
 20
16.53928024305744
 30
0.0
 11
21.39517794911408
 21
17.04788545837915
 31
0.0
  0
LINE
  5
42A
330
1F
100
AcDbEntity
  8
0
100
AcDbLine
 10
15.26265064092041
 20
10.99031146899126
 30
0.0
 11
15.85152251227864
 21
11.57918334034949
 31
0.0
  0
LINE
  5
42B
330
1F
100
AcDbEntity
  8
0
100
AcDbLine
 10
18.35820278371088
 20
14.08586361178173
 30
0.0
 11
19.33624375570956
 21
15.0639045837804
 31
0.0
  0
LINE
  5
42C
330
1F
100
AcDbEntity
  8
0
100
AcDbLine
 10
20.82181902685889
 20
16.54947985492973
 30
0.0
 11
21.33414728598579
 21
17.06180811405663
 31
0.0
  0
LINE
  5
42D
330
1F
100
AcDbEntity
  8
0
100
AcDbLine
 10
15.24883690335994
 20
11.05145105023656
 30
0.0
 11
15.84411131774012
 21
11.64672546461674
 31
0.0
  0
LINE
  5
42E
330
1F
100
AcDbEntity
  8
0
100
AcDbLine
 10
18.28324946490511
 20
14.08586361178173
 30
0.0
 11
19.21882011525802
 21
15.02143426213464
 31
0.0
  0
LINE
  5
42F
330
1F
100
AcDbEntity
  8
0
100
AcDbLine
 10
20.75616987182128
 20
16.5587840186979
 30
0.0
 11
21.27242932416732
 21
17.07504347104393
 31
0.0
  0
LINE
  5
430
330
1F
100
AcDbEntity
  8
0
100
AcDbLine
 10
15.23571979300084
 20
11.11328725868323
 30
0.0
 11
15.8374647475202
 21
11.71503221320259
 31
0.0
  0
LINE
  5
431
330
1F
100
AcDbEntity
  8
0
100
AcDbLine
 10
18.20829614609934
 20
14.08586361178173
 30
0.0
 11
19.11273268563538
 21
14.99030015131777
 31
0.0
  0
LINE
  5
432
330
1F
100
AcDbEntity
  8
0
100
AcDbLine
 10
20.68959762854947
 20
16.56716509423186
 30
0.0
 11
21.21006812163473
 21
17.08763558731712
 31
0.0
  0
LINE
  5
433
330
1F
100
AcDbEntity
  8
0
100
AcDbLine
 10
15.22324752430524
 20
11.17576830879341
 30
0.0
 11
15.83151708552287
 21
11.78403787001104
 31
0.0
  0
LINE
  5
434
330
1F
100
AcDbEntity
  8
0
100
AcDbLine
 10
18.15865787247353
 20
14.1111786569617
 30
0.0
 11
19.0164191794262
 21
14.96893996391436
 31
0.0
  0
LINE
  5
435
330
1F
100
AcDbEntity
  8
0
100
AcDbLine
 10
20.62199042242295
 20
16.57451120691111
 30
0.0
 11
21.14702897882804
 21
17.09954976331621
 31
0.0
  0
LINE
  5
436
330
1F
100
AcDbEntity
  8
0
100
AcDbLine
 10
15.21138121645174
 20
11.23885531974568
 30
0.0
 11
15.82640384191732
 21
11.85387794521126
 31
0.0
  0
LINE
  5
437
330
1F
100
AcDbEntity
  8
0
100
AcDbLine
 10
18.15865787247267
 20
14.18613197576661
 30
0.0
 11
18.9242129481785
 21
14.95168705147244
 31
0.0
  0
LINE
  5
438
330
1F
100
AcDbEntity
  8
0
100
AcDbLine
 10
20.55355056487687
 20
16.58102466817081
 30
0.0
 11
21.08341259045799
 21
17.11088669375192
 31
0.0
  0
LINE
  5
439
330
1F
100
AcDbEntity
  8
0
100
AcDbLine
 10
15.20014515345572
 20
11.30257257555543
 30
0.0
 11
15.82228708362273
 21
11.92471450572245
 31
0.0
  0
LINE
  5
43A
330
1F
100
AcDbEntity
  8
0
100
AcDbLine
 10
18.1586578724718
 20
14.26108529457152
 30
0.0
 11
18.83514412638367
 21
14.93757154848339
 31
0.0
  0
LINE
  5
43B
330
1F
100
AcDbEntity
  8
0
100
AcDbLine
 10
20.48414945878284
 20
16.58657688088255
 30
0.0
 11
21.01915810568346
 21
17.12158552778317
 31
0.0
  0
LINE
  5
43C
330
1F
100
AcDbEntity
  8
0
100
AcDbLine
 10
15.18960745607491
 20
11.3669881969804
 30
0.0
 11
15.81941691994967
 21
11.99679766085516
 31
0.0
  0
LINE
  5
43D
330
1F
100
AcDbEntity
  8
0
100
AcDbLine
 10
18.15865787247094
 20
14.33603861337642
 30
0.0
 11
18.74959145363179
 21
14.92697219453728
 31
0.0
  0
LINE
  5
43E
330
1F
100
AcDbEntity
  8
0
100
AcDbLine
 10
20.41365234422635
 20
16.59103308513184
 30
0.0
 11
20.9542083654334
 21
17.13158910633888
 31
0.0
  0
LINE
  5
43F
330
1F
100
AcDbEntity
  8
0
100
AcDbLine
 10
15.1798472568444
 20
11.43218131655566
 30
0.0
 11
15.81768445471628
 21
12.07001851442755
 31
0.0
  0
LINE
  5
440
330
1F
100
AcDbEntity
  8
0
100
AcDbLine
 10
18.15865787247007
 20
14.41099193218133
 30
0.0
 11
18.66715575032688
 21
14.91948981003814
 31
0.0
  0
LINE
  5
441
330
1F
100
AcDbEntity
  8
0
100
AcDbLine
 10
20.34195832287978
 20
16.59429238259105
 30
0.0
 11
20.88850347604485
 21
17.14083753575611
 31
0.0
  0
LINE
  5
442
330
1F
100
AcDbEntity
  8
0
100
AcDbLine
 10
15.17098682678009
 20
11.49827420529712
 30
0.0
 11
15.81668232187284
 21
12.14396970038987
 31
0.0
  0
LINE
  5
443
330
1F
100
AcDbEntity
  8
0
100
AcDbLine
 10
18.15865787246921
 20
14.48594525098624
 30
0.0
 11
18.58727959606427
 21
14.91456697458131
 31
0.0
  0
LINE
  5
444
330
1F
100
AcDbEntity
  8
0
100
AcDbLine
 10
20.26907531096101
 20
16.59636268947804
 30
0.0
 11
20.82200616337011
 21
17.14929354188715
 31
0.0
  0
LINE
  5
445
330
1F
100
AcDbEntity
  8
0
100
AcDbLine
 10
15.1629839661027
 20
11.56522466342551
 30
0.0
 11
15.81652828109132
 21
12.21876897841413
 31
0.0
  0
LINE
  5
446
330
1F
100
AcDbEntity
  8
0
100
AcDbLine
 10
18.15865787246834
 20
14.56089856979115
 30
0.0
 11
18.50931949530624
 21
14.91156019262905
 31
0.0
  0
LINE
  5
447
330
1F
100
AcDbEntity
  8
0
100
AcDbLine
 10
20.19533611187385
 20
16.59757680919666
 30
0.0
 11
20.75470697541525
 21
17.15694767273806
 31
0.0
  0
LINE
  5
448
330
1F
100
AcDbEntity
  8
0
100
AcDbLine
 10
15.15582164262207
 20
11.63301565875065
 30
0.0
 11
15.81746633368711
 21
12.29466034981569
 31
0.0
  0
LINE
  5
449
330
1F
100
AcDbEntity
  8
0
100
AcDbLine
 10
18.15865787246747
 20
14.63585188859605
 30
0.0
 11
18.43289139033894
 21
14.91008540646752
 31
0.0
  0
LINE
  5
44A
330
1F
100
AcDbEntity
  8
0
100
AcDbLine
 10
20.12088384291337
 20
16.59807785904195
 30
0.0
 11
20.68660779769103
 21
17.16380181381961
 31
0.0
  0
LINE
  5
44B
330
1F
100
AcDbEntity
  8
0
100
AcDbLine
 10
15.14943395312717
 20
11.70158128806153
 30
0.0
 11
15.81914855482684
 21
12.3712958897612
 31
0.0
  0
LINE
  5
44C
330
1F
100
AcDbEntity
  8
0
100
AcDbLine
 10
18.15865787246661
 20
14.71080520740096
 30
0.0
 11
18.35799643115425
 21
14.91014376608861
 31
0.0
  0
LINE
  5
44D
330
1F
100
AcDbEntity
  8
0
100
AcDbLine
 10
20.0440827196999
 20
16.59623005463425
 30
0.0
 11
20.61778923979835
 21
17.16993657473271
 31
0.0
  0
LINE
  5
44E
330
1F
100
AcDbEntity
  8
0
100
AcDbLine
 10
15.14391591835822
 20
11.77101657209836
 30
0.0
 11
15.82211177324316
 21
12.44921242698329
 31
0.0
  0
LINE
  5
44F
330
1F
100
AcDbEntity
  8
0
100
AcDbLine
 10
18.15865787246574
 20
14.78575852620587
 30
0.0
 11
18.28452882305427
 21
14.9116294767944
 31
0.0
  0
LINE
  5
450
330
1F
100
AcDbEntity
  8
0
100
AcDbLine
 10
19.96690859364365
 20
16.59400924738378
 30
0.0
 11
20.54805902089741
 21
17.17515967463754
 31
0.0
  0
LINE
  5
451
330
1F
100
AcDbEntity
  8
0
100
AcDbLine
 10
15.13927777026219
 20
11.8413317428081
 30
0.0
 11
15.82674960325744
 21
12.52880357580335
 31
0.0
  0
LINE
  5
452
330
1F
100
AcDbEntity
  8
0
100
AcDbLine
 10
18.15865787246488
 20
14.86071184501078
 30
0.0
 11
18.21209570062027
 21
14.91414967316618
 31
0.0
  0
LINE
  5
453
330
1F
100
AcDbEntity
  8
0
100
AcDbLine
 10
19.88907861975875
 20
16.59113259230465
 30
0.0
 11
20.47747446479636
 21
17.17952843734226
 31
0.0
  0
LINE
  5
454
330
1F
100
AcDbEntity
  8
0
100
AcDbLine
 10
15.13557745588363
 20
11.91258474723532
 30
0.0
 11
15.83282845534619
 21
12.60983574669787
 31
0.0
  0
LINE
  5
455
330
1F
100
AcDbEntity
  8
0
100
AcDbLine
 10
19.81008204604328
 20
16.58708933739496
 30
0.0
 11
20.40599161100602
 21
17.1829989023577
 31
0.0
  0
LINE
  5
456
330
1F
100
AcDbEntity
  8
0
100
AcDbLine
 10
15.13285090419137
 20
11.98481151434882
 30
0.0
 11
15.84022860580688
 21
12.69218921596433
 31
0.0
  0
LINE
  5
457
330
1F
100
AcDbEntity
  8
0
100
AcDbLine
 10
19.72962581597914
 20
16.58158642613659
 30
0.0
 11
20.33359484607611
 21
17.18555545623356
 31
0.0
  0
LINE
  5
458
330
1F
100
AcDbEntity
  8
0
100
AcDbLine
 10
15.13094659624658
 20
12.05786052520981
 30
0.0
 11
15.84898102090678
 21
12.77589494987001
 31
0.0
  0
LINE
  5
459
330
1F
100
AcDbEntity
  8
0
100
AcDbLine
 10
19.64722760272925
 20
16.57414153169248
 30
0.0
 11
20.26044802494547
 21
17.1873619539087
 31
0.0
  0
LINE
  5
45A
330
1F
100
AcDbEntity
  8
0
100
AcDbLine
 10
15.1295878239415
 20
12.1314550717105
 30
0.0
 11
15.85929479843018
 21
12.86116204619918
 31
0.0
  0
LINE
  5
45B
330
1F
100
AcDbEntity
  8
0
100
AcDbLine
 10
19.56240973612633
 20
16.56427698389533
 30
0.0
 11
20.1868050380119
 21
17.18867228578091
 31
0.0
  0
LINE
  5
45C
330
1F
100
AcDbEntity
  8
0
100
AcDbLine
 10
15.12896875324028
 20
12.20578931981506
 30
0.0
 11
15.87177998928815
 21
12.94860055586293
 31
0.0
  0
LINE
  5
45D
330
1F
100
AcDbEntity
  8
0
100
AcDbLine
 10
19.47524114233142
 20
16.5520617089062
 30
0.0
 11
20.11244970634873
 21
17.18927027292351
 31
0.0
  0
LINE
  5
45E
330
1F
100
AcDbEntity
  8
0
100
AcDbLine
 10
15.13020049647653
 20
12.28197438185708
 30
0.0
 11
15.88649574367376
 21
13.03826962905431
 31
0.0
  0
LINE
  5
45F
330
1F
100
AcDbEntity
  8
0
100
AcDbLine
 10
19.38567129310238
 20
16.53744517848293
 30
0.0
 11
20.03626464342272
 21
17.18803852880327
 31
0.0
  0
LINE
  5
460
330
1F
100
AcDbEntity
  8
0
100
AcDbLine
 10
15.13187150975592
 20
12.35859871394225
 30
0.0
 11
15.90388435787225
 21
13.13061156205857
 31
0.0
  0
LINE
  5
461
330
1F
100
AcDbEntity
  8
0
100
AcDbLine
 10
19.29366236075336
 20
16.52038956493968
 30
0.0
 11
19.95964031112716
 21
17.18636751531348
 31
0.0
  0
LINE
  5
462
330
1F
100
AcDbEntity
  8
0
100
AcDbLine
 10
15.13436155603971
 20
12.43604207903181
 30
0.0
 11
15.9241569426968
 21
13.2258374656889
 31
0.0
  0
LINE
  5
463
330
1F
100
AcDbEntity
  8
0
100
AcDbLine
 10
19.19915310080023
 20
16.50083362379233
 30
0.0
 11
19.88219694713468
 21
17.18387747012678
 31
0.0
  0
LINE
  5
464
330
1F
100
AcDbEntity
  8
0
100
AcDbLine
 10
15.13803056162075
 20
12.51466440341862
 30
0.0
 11
15.94707255157803
 21
13.32370639337591
 31
0.0
  0
LINE
  5
465
330
1F
100
AcDbEntity
  8
0
100
AcDbLine
 10
19.10180167949466
 20
16.47843552129253
 30
0.0
 11
19.80357462545227
 21
17.18020846725015
 31
0.0
  0
LINE
  5
466
330
1F
100
AcDbEntity
  8
0
100
AcDbLine
 10
15.14304827124469
 20
12.59463543184834
 30
0.0
 11
15.97277273178295
 21
13.4243598923866
 31
0.0
  0
LINE
  5
467
330
1F
100
AcDbEntity
  8
0
100
AcDbLine
 10
19.00149454074176
 20
16.45308170134541
 30
0.0
 11
19.72360359907774
 21
17.17519075968139
 31
0.0
  0
LINE
  5
468
330
1F
100
AcDbEntity
  8
0
100
AcDbLine
 10
15.1494363521072
 20
12.67597683151662
 30
0.0
 11
16.00192130065725
 21
13.52846178006667
 31
0.0
  0
LINE
  5
469
330
1F
100
AcDbEntity
  8
0
100
AcDbLine
 10
18.89712875550081
 20
16.42366923491022
 30
0.0
 11
19.64226219666915
 21
17.16880267607857
 31
0.0
  0
LINE
  5
46A
330
1F
100
AcDbEntity
  8
0
100
AcDbLine
 10
15.15718189705776
 20
12.75867569527295
 30
0.0
 11
16.03530653631286
 21
13.63680033452805
 31
0.0
  0
LINE
  5
46B
330
1F
100
AcDbEntity
  8
0
100
AcDbLine
 10
18.78844426752164
 20
16.38993806573683
 30
0.0
 11
19.55956332256746
 21
17.16105712078265
 31
0.0
  0
LINE
  5
46C
330
1F
100
AcDbEntity
  8
0
100
AcDbLine
 10
15.16659277266263
 20
12.8430398896836
 30
0.0
 11
16.07360201037113
 21
13.7500491273921
 31
0.0
  0
LINE
  5
46D
330
1F
100
AcDbEntity
  8
0
100
AcDbLine
 10
18.67447378035851
 20
16.35092089737948
 30
0.0
 11
19.47519912001138
 21
17.15164623703235
 31
0.0
  0
LINE
  5
46E
330
1F
100
AcDbEntity
  8
0
100
AcDbLine
 10
15.17764732567436
 20
12.9290477615011
 30
0.0
 11
16.11841104589449
 21
13.86981148172124
 31
0.0
  0
LINE
  5
46F
330
1F
100
AcDbEntity
  8
0
100
AcDbLine
 10
18.55358994661743
 20
16.30499038244418
 30
0.0
 11
19.38919126045859
 21
17.14059169628533
 31
0.0
  0
LINE
  5
470
330
1F
100
AcDbEntity
  8
0
100
AcDbLine
 10
15.19065535926625
 20
13.01700911389877
 30
0.0
 11
16.17161712012756
 21
13.99797087476008
 31
0.0
  0
LINE
  5
471
330
1F
100
AcDbEntity
  8
0
100
AcDbLine
 10
18.42428704044863
 20
16.25064079508115
 30
0.0
 11
19.30122995316266
 21
17.12758370779517
 31
0.0
  0
LINE
  5
472
330
1F
100
AcDbEntity
  8
0
100
AcDbLine
 10
15.20573863954683
 20
13.10704571298512
 30
0.0
 11
16.23571711206585
 21
14.13702418550414
 31
0.0
  0
LINE
  5
473
330
1F
100
AcDbEntity
  8
0
100
AcDbLine
 10
18.28380111374955
 20
16.18510818718784
 30
0.0
 11
19.21119337914697
 21
17.11250045258526
 31
0.0
  0
LINE
  5
474
330
1F
100
AcDbEntity
  8
0
100
AcDbLine
 10
15.22269633088638
 20
13.19895672313044
 30
0.0
 11
16.31353892903914
 21
14.2897993212832
 31
0.0
  0
LINE
  5
475
330
1F
100
AcDbEntity
  8
0
100
AcDbLine
 10
18.12860346270385
 20
16.10486385494792
 30
0.0
 11
19.11928227740682
 21
17.09554266965089
 31
0.0
  0
LINE
  5
476
330
1F
100
AcDbEntity
  8
0
100
AcDbLine
 10
15.24168293075488
 20
13.29289664180472
 30
0.0
 11
16.41162990134574
 21
14.46284361239558
 31
0.0
  0
LINE
  5
477
330
1F
100
AcDbEntity
  8
0
100
AcDbLine
 10
17.95244868253015
 20
16.00366239357999
 30
0.0
 11
19.0253421510981
 21
17.07655586214794
 31
0.0
  0
LINE
  5
478
330
1F
100
AcDbEntity
  8
0
100
AcDbLine
 10
15.26314256756566
 20
13.38930959742127
 30
0.0
 11
16.54321602475163
 21
14.66938305460725
 31
0.0
  0
LINE
  5
479
330
1F
100
AcDbEntity
  8
0
100
AcDbLine
 10
17.74143824831153
 20
15.86760527816714
 30
0.0
 11
18.92892926671033
 21
17.05509629656595
 31
0.0
  0
LINE
  5
47A
330
1F
100
AcDbEntity
  8
0
100
AcDbLine
 10
15.28754789590912
 20
13.48866824457051
 30
0.0
 11
16.76448315119888
 21
14.96560349986027
 31
0.0
  0
LINE
  5
47B
330
1F
100
AcDbEntity
  8
0
100
AcDbLine
 10
17.43762726437883
 20
15.63874761304021
 30
0.0
 11
18.82957139523526
 21
17.03069174389665
 31
0.0
  0
LINE
  5
47C
330
1F
100
AcDbEntity
  8
0
100
AcDbLine
 10
15.31544962301627
 20
13.59152329048344
 30
0.0
 11
18.72671680556769
 21
17.00279047303485
 31
0.0
  0
LINE
  5
47D
330
1F
100
AcDbEntity
  8
0
100
AcDbLine
 10
15.34654904556783
 20
13.69757603184076
 30
0.0
 11
18.62066148643986
 21
16.9716884727128
 31
0.0
  0
LINE
  5
47E
330
1F
100
AcDbEntity
  8
0
100
AcDbLine
 10
15.38130241397799
 20
13.8072827190567
 30
0.0
 11
18.51095168465925
 21
16.93693198973796
 31
0.0
  0
LINE
  5
47F
330
1F
100
AcDbEntity
  8
0
100
AcDbLine
 10
15.42100887628355
 20
13.92194250016804
 30
0.0
 11
18.39630223086805
 21
16.89723585475253
 31
0.0
  0
LINE
  5
480
330
1F
100
AcDbEntity
  8
0
100
AcDbLine
 10
15.46714270161657
 20
14.04302964430682
 30
0.0
 11
18.27522790690011
 21
16.85111484959037
 31
0.0
  0
LINE
  5
481
330
1F
100
AcDbEntity
  8
0
100
AcDbLine
 10
15.52022265413062
 20
14.17106291562666
 30
0.0
 11
18.1471303830468
 21
16.79797064454283
 31
0.0
  0
LINE
  5
482
330
1F
100
AcDbEntity
  8
0
100
AcDbLine
 10
15.58177111627861
 20
14.30756469658041
 30
0.0
 11
18.010641433232
 21
16.73643501353381
 31
0.0
  0
LINE
  5
483
330
1F
100
AcDbEntity
  8
0
100
AcDbLine
 10
15.65418676257402
 20
14.4549336616816
 30
0.0
 11
17.86365195905659
 21
16.66439885816417
 31
0.0
  0
LINE
  5
484
330
1F
100
AcDbEntity
  8
0
100
AcDbLine
 10
15.74010290537128
 20
14.61580312328463
 30
0.0
 11
17.70106337235559
 21
16.57676359026895
 31
0.0
  0
LINE
  5
485
330
1F
100
AcDbEntity
  8
0
100
AcDbLine
 10
15.84747991637786
 20
14.79813345309699
 30
0.0
 11
17.51629332466103
 21
16.46694686138016
 31
0.0
  0
LINE
  5
486
330
1F
100
AcDbEntity
  8
0
100
AcDbLine
 10
15.99893831870191
 20
15.02454517422681
 30
0.0
 11
17.29627493459036
 21
16.32188179011527
 31
0.0
  0
LINE
  5
487
330
1F
100
AcDbEntity
  8
0
100
AcDbLine
 10
16.2370225170901
 20
15.33758269142078
 30
0.0
 11
16.97294878383362
 21
16.07350895816429
 31
0.0
  0
ENDSEC
  0
SECTION
  2
OBJECTS
  0
DICTIONARY
  5
C
330
0
100
AcDbDictionary
281
     1
  3
ACAD_COLOR
350
6C
  3
ACAD_GROUP
350
D
  3
ACAD_LAYOUT
350
1A
  3
ACAD_MATERIAL
350
6B
  3
ACAD_MLINESTYLE
350
17
  3
ACAD_PLOTSETTINGS
350
19
  3
ACAD_PLOTSTYLENAME
350
E
  3
ACAD_TABLESTYLE
350
92
  3
AcDbVariableDictionary
350
59
  0
DICTIONARY
  5
6C
102
{ACAD_REACTORS
330
C
102
}
330
C
100
AcDbDictionary
281
     1
  0
DICTIONARY
  5
D
102
{ACAD_REACTORS
330
C
102
}
330
C
100
AcDbDictionary
281
     1
  0
DICTIONARY
  5
1A
102
{ACAD_REACTORS
330
C
102
}
330
C
100
AcDbDictionary
281
     1
  3
Layout1
350
74
  3
Layout2
350
9C
  3
Model
350
22
  0
DICTIONARY
  5
6B
102
{ACAD_REACTORS
330
C
102
}
330
C
100
AcDbDictionary
281
     1
  0
DICTIONARY
  5
17
102
{ACAD_REACTORS
330
C
102
}
330
C
100
AcDbDictionary
281
     1
  3
Standard
350
18
  0
DICTIONARY
  5
19
102
{ACAD_REACTORS
330
C
102
}
330
C
100
AcDbDictionary
281
     1
  0
ACDBDICTIONARYWDFLT
  5
E
102
{ACAD_REACTORS
330
C
102
}
330
C
100
AcDbDictionary
281
     1
  3
Normal
350
F
100
AcDbDictionaryWithDefault
340
F
  0
DICTIONARY
  5
92
102
{ACAD_REACTORS
330
C
102
}
330
C
100
AcDbDictionary
281
     1
  0
DICTIONARY
  5
59
102
{ACAD_REACTORS
330
C
102
}
330
C
100
AcDbDictionary
281
     1
  0
LAYOUT
  5
74
102
{ACAD_REACTORS
330
1A
102
}
330
1A
100
AcDbPlotSettings
  1

  2
\\ADSCCNDC1\hq601xrx1
  4

  6

 40
0.0
 41
0.0
 42
0.0
 43
0.0
 44
0.0
 45
0.0
 46
0.0
 47
0.0
 48
0.0
 49
0.0
140
0.0
141
0.0
142
1.0
143
1.0
 70
   688
 72
     0
 73
     0
 74
     5
  7

 75
    16
 76
     0
 77
     2
 78
   300
147
1.0
148
0.0
149
0.0
100
AcDbLayout
  1
Layout1
 70
     1
 71
     1
 10
0.0
 20
0.0
 11
12.0
 21
9.0
 12
0.0
 22
0.0
 32
0.0
 14
0.0
 24
0.0
 34
0.0
 15
0.0
 25
0.0
 35
0.0
146
0.0
 13
0.0
 23
0.0
 33
0.0
 16
1.0
 26
0.0
 36
0.0
 17
0.0
 27
1.0
 37
0.0
 76
     0
330
73
  0
LAYOUT
  5
9C
102
{ACAD_REACTORS
330
1A
102
}
330
1A
100
AcDbPlotSettings
  1

  2
None
  4

  6

 40
0.0
 41
0.0
 42
0.0
 43
0.0
 44
0.0
 45
0.0
 46
0.0
 47
0.0
 48
0.0
 49
0.0
140
0.0
141
0.0
142
1.0
143
1.0
 70
   688
 72
     0
 73
     0
 74
     5
  7

 75
    16
 76
     0
 77
     2
 78
   300
147
1.0
148
0.0
149
0.0
100
AcDbLayout
  1
Layout2
 70
     1
 71
     2
 10
0.0
 20
0.0
 11
12.0
 21
9.0
 12
0.0
 22
0.0
 32
0.0
 14
1.000000000000000E+20
 24
1.000000000000000E+20
 34
1.000000000000000E+20
 15
-1.000000000000000E+20
 25
-1.000000000000000E+20
 35
-1.000000000000000E+20
146
0.0
 13
0.0
 23
0.0
 33
0.0
 16
1.0
 26
0.0
 36
0.0
 17
0.0
 27
1.0
 37
0.0
 76
     0
330
9B
  0
LAYOUT
  5
22
102
{ACAD_REACTORS
330
1A
102
}
330
1A
100
AcDbPlotSettings
  1

  2
none_device
  4
Letter_(8.50_x_11.00_Inches)
  6

 40
6.349999904632568
 41
6.349999904632568
 42
6.350006103515625
 43
6.350006103515625
 44
215.8999938964844
 45
279.3999938964844
 46
0.0
 47
0.0
 48
0.0
 49
0.0
140
0.0
141
0.0
142
1.0
143
3.560208697428377
 70
 11952
 72
     0
 73
     1
 74
     0
  7

 75
     0
 76
     0
 77
     2
 78
   300
147
0.28088241027059
148
0.1311165230791651
149
0.096403374003771
100
AcDbLayout
  1
Model
 70
     1
 71
     0
 10
0.0
 20
0.0
 11
12.0
 21
9.0
 12
0.0
 22
0.0
 32
0.0
 14
15.1287164471935
 24
7.189512324101518
 34
0.0
 15
25.22501083894724
 25
17.18952257920316
 35
0.0
146
0.0
 13
0.0
 23
0.0
 33
0.0
 16
1.0
 26
0.0
 36
0.0
 17
0.0
 27
1.0
 37
0.0
 76
     0
330
1F
  0
MLINESTYLE
  5
18
102
{ACAD_REACTORS
330
17
102
}
330
17
100
AcDbMlineStyle
  2
Standard
 70
     0
  3

 62
   256
 51
90.0
 52
90.0
 71
     2
 49
0.5
 62
   256
  6
BYLAYER
 49
-0.5
 62
   256
  6
BYLAYER
  0
ACDBPLACEHOLDER
  5
F
102
{ACAD_REACTORS
330
E
102
}
330
E
  0
ENDSEC
  0
EOF
